PrimaNota.ru - самый крупный в мире бесплатный архив песенных текстов, аккордов, табулатур и нот


Kok - Superstar - аккорды и текст, видео

Регистрация Запомнить меня
Войти через:  Facebook Google Twitter Vk Yandex Mail.ru

Kok - Superstar - аккорды и текст, видео

Печатать
Просмотров: 111
Superstar
Kok
kok - Superstar

Album: Garten-Productions OST
EP: and Erbarmungslos Punken EP


Bm      x24432
G5      x55430
D5      x5777x
A5      x77650



Intro

Guitar 1

 |2x | Bm  G5         D   A5
e|-x-|-2---0--0--0----5---0--0--0---|
B|-x-|-3---3--0--3----7---5--0--5---|
G|-x-|-4---4--4--4----7---6--6--6---|
D|-4-|-4---5--5--5----7---7--7--7---|
A|-2-|-2---5--5--5----5---7--7--7---|
E|-2-|---------------(5)------------|

Guitar 2

e|----------|--------------------------------|
B|-3h5p3----|-3h5/7-7-7p5/3h5-5-3-5/7/5-3----|
G|-------4--|-----------------------------4--|
D|----------|--------------------------------|
A|----------|--------------------------------|
E|----------|--------------------------------|

Verse
Bm                   G5
Kaum zu glauben aber wahr,
D5          A5
ich bin ein Superstar.
Bm                   G5
Kaum zu glauben aber wahr,
D5            A5
ich bin ein Superstar.

Schlechte Platten machen,
dass konnte ich ja immer schon gut.
Und die Einnahmen verscherbeln,
liegt mir schon seit meiner Kindheit im Blut.

Ich kann es kaum fassen,
habe ich doch eigentlich nur vor,
eure Portemonnaie's zu meinen zu machen.
Ist das jetzt gelogen,
oder ist es wahr?

During "ist das wahr" play this one:

    A5
e|-0--0--0-|
B|-5--7--5-|
G|-6--6--6-|
D--7--x--7-|
A|-7--7--7-|
E|---------|


Kaum zu glauben aber wahr,
ich bin ein Superstar.
Ich bin,
was mir gefällt.


h: hammer on
p: pull of
/: slide
Добавлено: 21.07.2015
Другие материалы по этой песне:
  • Аккорды и текст

Страница создана 21.07.2015
http://primanota.ru/kok/superstar-chords.htm
Привет, Гость.
Предлагаем пройти революционный курс по гитаре.
Подарок от PrimaNota.Ru, забирай!