PrimaNota.ru - самый крупный в мире бесплатный архив песенных текстов, аккордов, табулатур и нот


Kok - Monika - аккорды и текст, видео

Регистрация Запомнить меня
Войти через:  Facebook Google Twitter Vk Yandex Mail.ru

Kok - Monika - аккорды и текст, видео

Печатать
Просмотров: 177
Monika
Kok
-------------------------------------------------------------------------------
                         kok - Monika (Erbarmungslos Punken - The Official EP)
-------------------------------------------------------------------------------
Tabbed by: Dragas_1

Tuning: e B G D A E


Intro:

Guitar1

D, A, Em, G


Guitar2
e|----------------------------------------|
B|----------------------------------------|
G|------------------------7--9--11-4------|
D|------------------------x--x--x--x--(5)-|
A|--55--------------------5--7--9--2--(x)-|
E|------5555---00---3333--------------(3)-|

e|----------------------------------------------------------------|
B|-------------------------------7-8-7-----------7-8-7------------|
G|-------------------------------------7-9-7-9---------7-----9-7~-|
D|------44h5-4---4------------------------------------------------|
A|--5-7-------7----7-5--------------------------------------------|
E|----------------------(5)/7~------------------------------------|


Verse1:

D      A                    G           A
Monika, deine Worte sind so wunderbar.
D      A                                  G            A
Monika, dich schmückt im Gegensatz zu mir volles Haar.
D      A              G             A
Monika, schreibt sich Moni und Ka.
D      A                      G       A/Asus
Monika, so heiß wie gekochtes Wasser.


Chorus:

Guitar2:
kok was playing something like this in Cologne but i don't know the correct Tones.
It's just a Variation of this and the Intro Riff i think. Use heavy Distortion and listen to the Song.

e|------------------------------------|
B|--3---------------------------------|
G|--2--2------------------------------|
D|-----0---4-5-4------------4-5-4-----|
A|----------------5---5-5-7-------7-5-|
E|------------------------------------|


Guitar1:
D           A                        Em                  G
Moni war ein tolles Mädchen und jetzt ist sie nicht mehr da.
D           A                        Em             G
Ich liebte sie und ihre Macken und ihr graues Haar.
      D                  A                Em               G
Jetzt sitze ich hier in meinem Zimmer und bin wieder ganz allein.
    D                A                Em          G
Die Realität sagt so ist das Leben in einem Altersheim.


D A Em G


Interlude
e|-------------------------------------------------------|
B|-------------------------------10-8-7-8-7---7----------|
G|------------------------------------------9---9-7------|
D|------44h5-4---4----------------------------------7-9~-|
A|--5-7-------7----7-5-----------------------------------|
E|----------------------(5)/7~---------------------------|


Verse2:

D      A                 G            A
Monika, musikalisch Pentatonik in A.
D      A             G          A
Monika, liebte einen Rockstar.
D     A            G        A
Monika ging nach Amerika.
D      A                  G                      A/Asus
Monika starb dort noch im selben Jahr. (Moni ist nicht mehr da.)

After "Ging nach Amerika" Guitar 2 plays this:

e|--12---------|
B|------12--10~|


Chorus:

Guitar2

e|------------------------------------|
B|--3---------------------------------|
G|--2--2------------------------------|
D|-----0---4-5-4------------4-5-4-----|
A|----------------5---5-5-7-------7-5-|
E|------------------------------------|

Guitar1:
D           A                        Em                  G
Moni war ein tolles Mädchen und jetzt ist sie nicht mehr da.
D           A                        Em             G
Ich liebte sie und ihre Macken und ihr graues Haar.
      D                  A                Em               G
Jetzt sitze ich hier in meinem Zimmer und bin wieder ganz allein.
    D                A                Em          G
Die Realität sagt so ist das Leben in einem Altersheim.


Solo:

e|--9h10p9-11h12p11-13h14p13-15-14-12h14p12-9h11p11-12^-14^-15-14-12h14-10-9-7-55h7p5------------|
B|------------------------------------------------------------------------------------7-8-7------|
G|------------------------------------------------------------------------------------------7-9--|
D|-----------------------------------------------------------------------------------------------|
A|-----------------------------------------------------------------------------------------------|
E|-----------------------------------------------------------------------------------------------|

Play Solo during the Chorus:

e|--------------------------|
B|--------------------------|
G|--9/11-11/12-11/12p11-----|
D|----------------------13--|
A|--------------------------|
E|--------------------------|






Chords:
    D     A     Em    G  Asus
e|--2-----0-----0-----3---0--|
B|--3-----3-----0-----0---3--|
G|--2-----3-----0-----0---2--|
D|--0-----3-----2-----0---2--|
A|--x-----0-----2-----2---0--|
E|--x-----x-----0-----3---c--|

The Rhythm isn't difficult! Listen to the song to get it out!

| /  slide up
| \  slide down
| h  hammer-on
| p  pull-off
| ~  vibrato
| +  harmonic
| x  Mute note
Добавлено: 21.07.2015
Другие материалы по этой песне:
  • Аккорды и текст

Страница создана 21.07.2015
http://primanota.ru/kok/monika-chords.htm
Привет, Гость.
Предлагаем пройти революционный курс по гитаре.
Подарок от PrimaNota.Ru, забирай!