PrimaNota.ru - самый крупный в мире бесплатный архив песенных текстов, аккордов, табулатур и нот


Kok - Lebenszeit - таба, видео

Регистрация Запомнить меня
Войти через:  Facebook Google Twitter Vk Yandex Mail.ru

Kok - Lebenszeit - таба, видео

Печатать
Просмотров: 120
kok
From the album Garten-Productions OST and Erbarmungslos Punken EP

kok is playing Open- and Powerchords. Listen to the Song to find out which way is the best for you.
Have fun!

Key: E

E5      x799xx
C5      x355xx
G5      355xxx
D5      x577xx
C       x32010
G       320033
D       xx0232
Em      022000
Em*     022xxx


Intro: 

Guitar 1
E5 / C5 / G5 / D5 2x

Guitar 2
e|-----|---------|-----|--------------------|
B|-5---|----3----|-----|--5--3--------------|
G|-----|---------|--4--|-----------4--------| 4x
D|-----|---------|-----|--------------------|
A|-----|---------|-----|--------------------|
E|-----|---------|-----|--------------------|


Verse 1
E5            C5
Bin ich jetzt dran
              G5
gottverdammtee Welt
             D5
du warst doch der
                 E5
der alles auf mich hält
             C5
Die Nacht ist kalt
           G5
mein Herz erstart
              D5
ein trauriges Zeichen
        Em*
der Gegenwart


Chorus
(Live kok is playing this in a version of Open and Powerchords)

C                                       G
Wenn du wirklich etwas auf mich halten würdest
          D                 Em
hättest du mich gefragt was ich dazu sag
C                                      G
Wenn du wirklich etwas auf mich halten würdest
D
dürft ich morgen die Sonne sehen
           Em                           C
vielleicht will ich ja noch gar nicht gehen

C / G / D / Em 2x


Verse 2
kok is singing "doch dass interessiert dich doch nicht". During that Guitar 2 is playing an easy Riff:


E|----5-5-5-7-8-7----|
B|----------------8--|
G|--7----------------|
D|-------------------|
A|-------------------|
E|-------------------|

C       G                D
Dunkle Dämonen umzingeln mich
                       Em
doch dass interessiert dich doch nicht
C         G                  D
die Nacht erwacht mit hellem Licht
                     Em
die Sone scheint nie mehr für mich
C                  G
ich bin noch nicht fertig
D                  Em
mir blieb zu wenig Zeit
C             G
ich will noch weiter
D                            Em*
ich bin noch nicht zum gehen bereit


Chorus
(Rhytm becomes much quicker)


Solo
(I don't know which way of the Solo is correct so listen to the Song)

Guitar 1
C / G / D / em

Guitar 2
e|---------------------------------------------------------|
B|--------------------------------3-5-3--------------------|
G|-5--4--2--0 2-0--2-0-2-4-5-4-5--------4-2-0-2-0-2-4-5-4--|
D|---------------------------------------------------------|
A|---------------------------------------------------------|
E|---------------------------------------------------------|

Добавлено: 21.07.2015
Другие материалы по этой песне:
  • Аккорды и текст

Страница создана 21.07.2015
http://primanota.ru/kok/lebenszeit-chords.htm
Привет, Гость.
Предлагаем пройти революционный курс по гитаре.
Подарок от PrimaNota.Ru, забирай!