PrimaNota.ru - самый крупный в мире бесплатный архив песенных текстов, аккордов, табулатур и нот


Kok - Gluecklich - аккорды и текст, видео

Регистрация Запомнить меня
Войти через:  Facebook Google Twitter Vk Yandex Mail.ru

Kok - Gluecklich - аккорды и текст, видео

Печатать
Просмотров: 136
Gluecklich
Kok
kok - Glücklich
Garten-Productions OST

This is an easy funny punk song with a lot of dynamic power by kok.
Pretty cool song i think.
Enjoy!


Used chords and riffs:
G5      355xxx
D5      x577xx
E5      022xxx
D5      x355xx
Em      022000
G       320003
D       xxx232
C       x32010

Riff1
e|-12---------------------------------|
B|----12-13-12-10-8-10-12-13-12-10-8--|
G|------------------------------------|
D|------------------------------------|
A|------------------------------------|
E|------------------------------------|

Riff2
e|--3h5p3-----------------------------|
B|----------5-3h5p3-------------------|
G|-------------------4h5p4------------|
D|-------------------------7-5-7-5----|
A|------------------------------------|
E|------------------------------------|

Riff3
e|-9/12--9/12--9/12-12-10-|
B|------------------------|
G|------------------------|
D|------------------------|
A|------------------------|
E|------------------------|



Intro
Guitar1
G5 / D5 / E5 / C5

Guitar2
Riff1
e|-12---------------------------------|
B|----12-13-12-10-8-10-12-13-12-10-8--|
G|------------------------------------|
D|------------------------------------|
A|------------------------------------|
E|------------------------------------|
Riff2
e|--3h5p3-----------------------------|
B|----------5-3h5p3-------------------|
G|-------------------4h5p4------------|
D|-------------------------7-5-7-5----|
A|------------------------------------|
E|------------------------------------|


Verse1
G                  D
Endlich scheint mal wieder die Sonne
Em                 C
auf mein wohliges Gemuet.
G              D
Ab jetzt folgen nur noch Tage
    Em                     C
an denen es mir wieder gut geht.


Chorus
Guitar 1
G5 / D5 / E5 / C5

Guitar 2
Riff3
e|-9/12--9/12--9/12-12-10-|
B|------------------------|
G|------------------------|
D|------------------------|
A|------------------------|
E|------------------------|

Verse 2
G5                    D5            E5
Erst gestern war doch alles noch so anders
                  C
und Ziele so weit weg.
G5            D5
Doch dann kam dieser Moment
    E5               C5
ich halte ihn für immer fest.


Outro
Guitar 1
G5 / D5 / E5 / C5

At the end of "Weil ich glücklich bin" Guitar2 plays
e|-8-7~| let ring
B|-----|
G|-----|
D|-----|
A|-----|
E|-----|
Добавлено: 21.07.2015
Другие материалы по этой песне:
  • Аккорды и текст

Страница создана 21.07.2015
http://primanota.ru/kok/gluecklich-chords.htm
Привет, Гость.
Предлагаем пройти революционный курс по гитаре.
Подарок от PrimaNota.Ru, забирай!