PrimaNota.ru - самый крупный в мире бесплатный архив песенных текстов, аккордов, табулатур и нот


Kok - Der Letzte Weg - аккорды и текст, видео

Регистрация Запомнить меня
Войти через:  Facebook Google Twitter Vk Yandex Mail.ru

Kok - Der Letzte Weg - аккорды и текст, видео

Печатать
Просмотров: 119
Der Letzte Weg
Kok
M/T: kok
Album: Erbarmungslos Punken EP

Tuning: Standard |EADGBe|

Notice: Sometimes kok is playing the E-String (F#) by playing the B5 Powerchord to get a deeper sound.
Listen to the EP to know when he's using this sound.
Actually these are the main chords of this awesome PUNK song.

B5      x244xx
B5      2244xx
G5      355xxx
D5      577xxx
A5      577xxx
Bm      x24432
A       x02220


Intro:

e|---2-----2-----2---5-5|
B|-0---0-0---0-0---0----|
G|----------------------|
D|----------------------|
A|----------------------|
E|----------------------|

e|---2-----2-----2-----5-5-|
B|-----3-----3-----3-------|
G|-0-----0-----0-----0-----|
D|-------------------------|
A|-------------------------|
E|-------------------------|

E|---2-----2-----2-----|
B|-----3-----3-----3---|
G|---------------------|
D|-0-----0-----0-----0-|
A|---------------------|
E|---------------------|

Then A, Bm, A... into the drop.


Guitar 1
    B5     G5        D5    A5
e|----------------------------|
B|----------------------------|
G|--4-------------7-6-7-6-----| 2x
D|--4--5-5-5-5-5--7-7-7-7--7--|
A|--2--5-4-5-4-5--5-5-5-5--7--|
E|--2--3-3-3-3-3-----------5--|

Guitar 2
P.M.
3|-------------------------------------------------------------------------------------------|
B|-------------------------------------------------------------------------------------------|
G|-------------------------------------------------------------------------------------------|
D|-------------------------------------------------------------------------------------------|
A|-0h2p0-22222-444-555---------------------------5555-777-555-4-5-4------------------4-4h5-2-|
E|---------------------333333-22-33333-2-3333-2-0--------------------5555-7777-5555-7--------|


Verse1:

B5                 G5
Die Nacht bricht an,
B5          G5
und ich bin allein.
B5            G5
Ich geh diesen Weg,
B5                  G5
er wird mein letzter sein.
D5                   A5
Mein Kopf ist voller Gedanken,
    B5                    G5
sie weisen mich in meine Schranken.
D5                     A5
Doch ich will sie nicht hören,
B5                  G5
will mich von ihnen erlösen.

Bm / A / G5 4x


Verse2:
B5                           G5
Ich fragte mich oft ob ich's tun soll.
B5                      G5
Fand mich denn wirklich nie jemand toll?
B5               G5         
In Drogen fand ich keine Lösung,
B5                          G5
es bleibt nur noch die eigene Zerstörung.
D5                       A5
Der Morgen bricht an und Gott schaut mich an,
   B5                 G5
er gibt mir all seine Kräfte.
  B5
Gib dir noch eine Chance,
A5
gehe nochmal zurück
     B5                      G5
und probier es nochmals aufs Letzte.


Bm / A / G5 4x

Bridge:
D5             B5
Ich geh diesen Weg zurück,
  G5                 A5
ein letztes Mal hatte ich Glück.
    E5                           B5
Die Vernunft sie rette mein Leben,
         G5                            A5
doch das nächste mal werd ich mich ihr ergeben.

Bm / A / G5 4x

Outro:
B5 / G5 / D5 / A5
Добавлено: 21.07.2015
Другие материалы по этой песне:
  • Аккорды и текст

Страница создана 21.07.2015
http://primanota.ru/kok/der-letzte-weg-chords.htm
Привет, Гость.
Предлагаем пройти революционный курс по гитаре.
Подарок от PrimaNota.Ru, забирай!