PrimaNota.ru - самый крупный в мире бесплатный архив песенных текстов, аккордов, табулатур и нот


Kok - Christmas Song - аккорды и текст, видео

Регистрация Запомнить меня
Войти через:  Facebook Google Twitter Vk Yandex Mail.ru

Kok - Christmas Song - аккорды и текст, видео

Печатать
Просмотров: 35
Christmas Song
Kok
kok - Christmas Song
Needed Guitars: 2

This Song is on the Erbarmungslos Punken EP by kok. Enjoy playing!


Verse 1
Start the Song on C5!

C5                 A5*
Koksound in frohem Ton,
          C5                   A5*
für die Jabronis der Isolierstation.
          C5                    A5*
Schlechte Podcast's rund um die Uhr,
        Dm                 F5   G5
und so charmant wie meine Fri-sur.


Interlude
Guitar 1

C5 / D5 / A5 / G5 4x

Guitar 2

e|--------------------------|--------------------------|
B|--------------------------|--------------------------|
G|--------------------------|--------------------------|   2x
D|-----------22h3-2------5--|-----------22h3-2--7-5-7--|
A|--33-2-3-5--------5-3-5---|--33-2-3-5-------5--------|
E|--------------------------|--------------------------|

Verse 2
Play Guitar P.M.

   C5              D5            A5          G5
Der Weihnachtsmann ist zwar kein schlanker,
         C5         D5           A5      G5
und erst recht ist er auch kein Punker.
   C5                   D5   A5         G5
Er kommt auch nicht aus Casa Blanca,
       C5                   D5        A5     G5
dieser Song macht euch noch alle kranker.

Repeat the Interlude and end the Song on C5.



P.M. - Pall Muted

 C5  A5* A5 Dm  F5  G5  D5 G5
--x--x----x--x--xx--xx--x--x--
--x--x----x--6--xx--xx--x--x--
--5--2----x--7--10--12--7--x--
--5--2----7--7--10--12--7--5--
--3--0----7--5---8--10--5--5--
--x-------5-----xx--xx--x--3--
Добавлено: 06.10.2015
Другие материалы по этой песне:
  • Аккорды и текст

Страница создана 06.10.2015
http://primanota.ru/kok/christmas-song-chords.htm
Привет, Гость.
Предлагаем пройти революционный курс по гитаре.
Подарок от PrimaNota.Ru, забирай!