PrimaNota.ru - самый крупный в мире бесплатный архив песенных текстов, аккордов, табулатур и нот


Koji - Peacemaker - таба, видео

Регистрация Запомнить меня
Войти через:  Facebook Google Twitter Vk Yandex Mail.ru

Koji - Peacemaker - таба, видео

Печатать
Просмотров: 72
-------------------------------------------------------------------------------
                             Peacemaker - Koji
-------------------------------------------------------------------------------
Tabbed by: Hunter Ventura
E-mail: Sirhuntsalott@yahoo.com

Not sure why I decided to write every single thing out, but oh well. Listen to the song 
for proper muting & rhythym.

Tuning:

e|---------------------------------------------------------------------------|
B|---------------------------------------------------------------------------|
G|---------------------------------------------------------------------------|
D|-------------------------------2-----5-------------------------------------|
A|-3-----7-----------------------3-----7-----5-----2-------------------------|
E|------------7-----0------------------------7-----0-------------------------|

e|---------------------------------------------------------------------------|
B|---------------------------------------------------------------------------|
G|---------------------------------------------------------------------------|
D|-2-----5-------------------2-----5-----------------------------------------|
A|-3-----7-----5-----2-------3-----7-----5-----2-----------------------------|
E|-------------7-----0-------------------7-----0-----------------------------|

e|---------------------------------------------------------------------------|
B|---------------------------------------------------------------------------|
G|---------------------------------------------------------------------------|
D|-2-----5-------------------2-----5-----------------------------------------|
A|-3-----7-----5-----2-------3-----7-----5-----2-----------------------------|
E|-------------7-----0-------------------7-----0-----------------------------|

e|---------------------------------------------------------------------------|
B|---------------------------------------------------------------------------|
G|---------------------------------------------------------------------------|
D|-2-2-2----5-5-5----------------------2-2-2----5-5-5------------------------|
A|-3-3-3----7-7-7----5-5-5----2-2-2----3-3-3----7-7-7---5-5-5----2-2-2-------|
E|-------------------7-7-7----0-0-0---------------------7-7-7----0-0-0-------|

e|---------------------------------------------------------------------------|
B|---------------------------------------------------------------------------|
G|---------------------------------------------------------------------------|
D|-2-2-2----5-5-5----------------------2-2-2----5-5-5------------------------|
A|-3-3-3----7-7-7----5-5-5----2-2-2----3-3-3----7-7-7---5-5-5----2-2-2-------|
E|-------------------7-7-7----0-0-0---------------------7-7-7----0-0-0-------|

e|---------------------------------------------------------------------------|
B|---------------------------------------------------------------------------|
G|---------------------------------------------------------------------------|
D|-2-2-2----5-5-5----------------------2-2-2----5-5-5------------------------|
A|-3-3-3----7-7-7----5-5-5----2-2-2----3-3-3----7-7-7---5-5-5----2--2-2-2-2--|
E|-------------------7-7-7----0-0-0---------------------7-7-7----0--0-0-0-0--|

e|---------------------------------------------------------------------------|
B|---------------------------------------------------------------------------|
G|---------------------------------------------------------------------------|
D|-2-2-2---5-5-5------------------------2-2-2---5-5-5------------------------|
A|-3-3-3---7-7-7---5-5-5---2--2-2-2-2---3-3-3---7-7-7---5-5-5---2--2-2-2-2---|
E|-----------------7-7-7---0--0-0-0-0-------------------7-7-7---0--0-0-0-0---|

e|---------------------------------------------------------------------------|
B|---------------------------------------------------------------------------|
G|---------------------------------------------------------------------------|
D|-2--2-2-2-2---5--5-5-5-5---------------------------------------------------|
A|-3--3-3-3-3---7--7-7-7-7---5--5-5-5-5---2--2-2-2-2-------------------------|
E|---------------------------7--7-7-7-7---0--0-0-0-0-------------------------|

e|---------------------------------------------------------------------------|
B|---------------------------------------------------------------------------|
G|---------------------------------------------------------------------------|
D|-2--2-2-2-2---5--5-5-5-5---------------------------------------------------|
A|-3--3-3-3-3---7--7-7-7-7---5--5-5-5-5--2--2-2-2-2--------------------------|
E|---------------------------7--7-7-7-7--0--0-0-0-0--------------------------|

e|---------------------------------------------------------------------------|
B|---------------------------------------------------------------------------|
G|---------------------------------------------------------------------------|
D|-2--2-2-2-2---5--5-5-5-5---------------------------------------------------|
A|-3--3-3-3-3---7--7-7-7-7---5--5-5-5-5---2--2-2-2-2-------------------------|
E|---------------------------7--7-7-7-7---0--0-0-0-0-------------------------|

e|---------------------------------------------------------------------------|
B|---------------------------------------------------------------------------|
G|---------------------------------------------------------------------------|
D|-2--2-2-2-2---5--5-5-5-5---------------------------------------------------|
A|-3--3-3-3-3---7--7-7-7-7---5--5-5-5-5---2--2-2-2-2-------------------------|
E|---------------------------7--7-7-7-7---0--0-0-0-0-------------------------|

e|---------------------------------------------------------------------------|
B|---------------------------------------------------------------------------|
G|-----7--7/9------11--11/12-------7--7/9----12-12-12--11-11-11--------------|
D|---------------------------------------------------------------------------|
A|-----5--5/7-------9---9/10-------5--5/7----10-10-10---9--9--9--------------|
E|-8------------0--------------8---------------------------------------------|

e|---------------------------------------------------------------------------|
B|---------------------------------------------------------------------------|
G|-----7--7/9------11--11/12-------7--7/9----12-12-12--11-11-11--------------|
D|---------------------------------------------------------------------------|
A|-----5--5/7-------9---9/10-------5--5/7----10-10-10---9--9--9--------------|
E|-8------------0--------------8---------------------------------------------|

e|---------------------------------------------------------------------------|
B|---------------------------------------------------------------------------|
G|-----7--7/9------11--11/12-------7--7/9----12-12-12--11-11-11--------------|
D|---------------------------------------------------------------------------|
A|-----5--5/7-------9---9/10-------5--5/7----10-10-10---9--9--9--------------|
E|-8------------0--------------8---------------------------------------------|

e|---------------------------------------------------------------------------|
B|---------------------------------------------------------------------------|
G|-----7--7/9------11--11/12-------7--7/9----12-12-12--11-11-11----12(x24?)--|
D|---------------------------------------------------------------------------|
A|-----5--5/7-------9---9/10-------5--5/7----10-10-10---9--9--9----10(x24?)--|
E|-8------------0--------------8---------------------------------------------|

        (Don't worry about hitting other strings from this point on)
e|---------------------------------------------------------------------------|
B|-0--0-0-0-0-----------------------------0--0-0-0-0-------------------------|
G|-0--0-0-0-0---0--0-0-0-0---0--0-0-0-0---2--2-2-2-2-------------------------|
D|-2--2-2-2-2---2--2-2-2-2---0--0-0-0-0---2--2-2-2-2-------------------------|
A|-3--3-3-3-3---2--2-2-2-2---2--2-2-2-2---0--0-0-0-0-------------------------|
E|--------------0--0-0-0-0---3--3-3-3-3--------------------------------------|

e|---------------------------------------------------------------------------|
B|-0--0-0-0-0-----------------------------0--0-0-0-0-------------------------|
G|-0--0-0-0-0---0--0-0-0-0---0--0-0-0-0---2--2-2-2-2-------------------------|
D|-2--2-2-2-2---2--2-2-2-2---0--0-0-0-0---2--2-2-2-2-------------------------|
A|-3--3-3-3-3---2--2-2-2-2---2--2-2-2-2---0--0-0-0-0-------------------------|
E|--------------0--0-0-0-0---3--3-3-3-3--------------------------------------|

e|---------------------------------------------------------------------------|
B|-0--0-0-0-0-----------------------------0--0-0-0-0-------------------------|
G|-0--0-0-0-0---0--0-0-0-0---0--0-0-0-0---2--2-2-2-2-------------------------|
D|-2--2-2-2-2---2--2-2-2-2---0--0-0-0-0---2--2-2-2-2-------------------------|
A|-3--3-3-3-3---2--2-2-2-2---2--2-2-2-2---0--0-0-0-0-------------------------|
E|--------------0--0-0-0-0---3--3-3-3-3--------------------------------------|

e|---------------------------------------------------------------------------|
B|-0--0-0-0-0-----------------------------0--0-0-0-0-------------------------|
G|-0--0-0-0-0---0--0-0-0-0---0--0-0-0-0---2--2-2-2-2-------------------------|
D|-2--2-2-2-2---2--2-2-2-2---0--0-0-0-0---2--2-2-2-2-------------------------|
A|-3--3-3-3-3---2--2-2-2-2---2--2-2-2-2---0--0-0-0-0-------------------------|
E|--------------0--0-0-0-0---3--3-3-3-3--------------------------------------|

e|---------------------------------------------------------------------------|
B|-0--0-0-0-0-----------------------------0--0-0-0-0-------------------------|
G|-0--0-0-0-0---0--0-0-0-0---0--0-0-0-0---2--2-2-2-2-------------------------|
D|-2--2-2-2-2---2--2-2-2-2---0--0-0-0-0---2--2-2-2-2-------------------------|
A|-3--3-3-3-3---2--2-2-2-2---2--2-2-2-2---0--0-0-0-0-------------------------|
E|--------------0--0-0-0-0---3--3-3-3-3--------------------------------------|

e|---------------------------------------------------------------------------|
B|-0--0-0-0-0-----------------------------0--0-0-0-0-------------------------|
G|-0--0-0-0-0---0--0-0-0-0---0--0-0-0-0---2--2-2-2-2-------------------------|
D|-2--2-2-2-2---2--2-2-2-2---0--0-0-0-0---2--2-2-2-2-------------------------|
A|-3--3-3-3-3---2--2-2-2-2---2--2-2-2-2---0--0-0-0-0-------------------------|
E|--------------0--0-0-0-0---3--3-3-3-3--------------------------------------|

(The part where the song gets softer) (Strumming with your thumb here sounds better.)
e|---------------------------------------------------------------------------|
B|-0--0-0-0-0-----------------------------0--0-0-0-0-------------------------|
G|-0--0-0-0-0---0--0-0-0-0---0--0-0-0-0---2--2-2-2-2-------------------------|
D|-2--2-2-2-2---2--2-2-2-2---0--0-0-0-0---2--2-2-2-2-------------------------|
A|-3--3-3-3-3---2--2-2-2-2---2--2-2-2-2---0--0-0-0-0-------------------------|
E|--------------0--0-0-0-0---3--3-3-3-3--------------------------------------|

e|---------------------------------------------------------------------------|
B|-0--0-0-0-0-----------------------------0--0-0-0-0-------------------------|
G|-0--0-0-0-0---0--0-0-0-0---0--0-0-0-0---2--2-2-2-2-------------------------|
D|-2--2-2-2-2---2--2-2-2-2---0--0-0-0-0---2--2-2-2-2-------------------------|
A|-3--3-3-3-3---2--2-2-2-2---2--2-2-2-2---0--0-0-0-0-------------------------|
E|--------------0--0-0-0-0---3--3-3-3-3--------------------------------------|

************************************

| /   slide up
| \   slide down
| h   hammer-on
| p   pull-off
| ~   vibrato
| +   harmonic
| x   Mute note
| b   Bend
| pb  Pre-bend
| br  Bend release
| pbr Pre-bend release
| brb Bend release bend

************************************
Добавлено: 16.10.2013
Другие материалы по этой песне:
  • Аккорды и текст

Страница создана 16.10.2013
http://primanota.ru/koji/peacemaker-chords.htm
Привет, Гость.
Предлагаем пройти революционный курс по гитаре.
Подарок от PrimaNota.Ru, забирай!