PrimaNota.ru - самый крупный в мире бесплатный архив песенных текстов, аккордов, табулатур и нот


Koji - Chasing A Ghost - таба, видео

Регистрация Запомнить меня
Войти через:  Facebook Google Twitter Vk Yandex Mail.ru

Koji - Chasing A Ghost - таба, видео

Печатать
Просмотров: 118
Уроки эстрадного вокала в Санкт-Петербурге
Chasing A Ghost
Andrew Koji Shiraki
Crooked In My Mind

You will need to listen to the song for strumming patterns and repeats.

Intro:

"I was alone and reckless..."

e-0--0--0--:
B-0--0--0--:
G-6--6--6--:
D-7--7--7--:   Shift back and forth between these.
A-7--5--7--:
E-5--x--5--:

"It was a beautiful time in my life."

e-0--0--0------0--0--|
B-0--0--3------0--0--|
G-2--1--2------2--1--|
D-4--2--0------4--2--|    After the last E major begin the bridge.
A-4--2--x------4--2--|
E-x--0--x------x--0--|

Bridge:

e-0---0--0---0--0---0--0-0-0-:
B-0h2-2--0h2-2--0h2-2--0-0-0-:
G-2---2--2---2--2---2--1-1-1-:
D-2---2--2---2--2---2--2-2-2-:
A-0---0--0---0--0---0--2-2-2-:
E-x---x--x---x--x---x--0-0-0-:

Verse:

"Wound up abroad..."

e-0-----0-0-0--:
B-2-----0-0-0--:
G-2-----1-1-1--:
D-2-----2-2-2--:   Same strumming as the bridge without hammer-ons.
A-0-----2-2-2--:
E-x-----0-0-0--:

Chorus:

"It was a beautiful time in my life."

e-0--0--0------0--0--|
B-0--0--3------0--0--|
G-2--1--2------2--1--|
D-4--2--0------4--2--|    After the last E major begin the bridge.
A-4--2--x------4--2--|
E-x--0--x------x--0--|

Bridge:

e-0---0--0---0--0---0--0-0-0-:
B-0h2-2--0h2-2--0h2-2--0-0-0-:
G-2---2--2---2--2---2--1-1-1-:
D-2---2--2---2--2---2--2-2-2-:
A-0---0--0---0--0---0--2-2-2-:
E-x---x--x---x--x---x--0-0-0-:

Verse:

"Summertime's stickin' to the skin on my ribs..."

e-0~-----0-0-0--:
B-2~-----0-0-0--:
G-2~-----1-1-1--:
D-2~-----2-2-2--:   Let first A major chord ring, then resume strumming.
A-0~-----2-2-2--:
E-x~-----0-0-0--:

"Then again I don't know anyway."

e-0~~~~-0~~~-0~~~--|
B-3~~~~-0~~~-0~~~--|
G-2~~~~-2~~~-1~~~--|
D-0~~~~-4~~~-2~~~--|
A-x-----4~~~-2~~~--|
E-x-----x----0~~~--|

Bridge:

e-0---0--0---0--0---0--0-0-0-:
B-0h2-2--0h2-2--0h2-2--0-0-0-:
G-2---2--2---2--2---2--1-1-1-:
D-2---2--2---2--2---2--2-2-2-:
A-0---0--0---0--0---0--2-2-2-:
E-x---x--x---x--x---x--0-0-0-:

Verse:

"Wound up abroad..."

e-0-----0-0-0--:
B-2-----0-0-0--:
G-2-----1-1-1--:
D-2-----2-2-2--:   Same strumming as the bridge without hammer-ons.
A-0-----2-2-2--:
E-x-----0-0-0--:

Chorus:

"It was a beautiful time in my life."

e-0--0--0------0--0--|
B-0--0--3------0--0--|
G-2--1--2------2--1--|
D-4--2--0------4--2--|    After the last E major begin the interlude.
A-4--2--x------4--2--|
E-x--0--x------x--0--|

Interlude:

e-x-x-x--x-:
B-x-x-x--x-:
G-6-7-11-4-:
D-7-9-12-6-:    Slowly add open strings as you strum through.
A-x-x-x--x-:
E-x-x-x--x-:

e-0---0---0---0---:
B-0---0---0---0---:
G-6---4---2---2p1-:
D-7---6---4---2---:   Repeat this twice. 5 the High e is optional to play
A-0---0---0---0---:   with the chords.
E-0---0---0---0---:

e-5--0--0--0--5--0----0~--0~--0~--0~-|
B-0--0--0--0--0--0----0~--0~--0~--0~-|
G-2--1--2--1--2--1----2~--2~--2~--2~-|
D-4--2--4--2--4--2----2~--2~--2~--2~-|
A-0--0--4--0--0--0----0~--0~--0~--0~-|
E-x--0--x--0--x--0----x---x---x---x--|

Chorus:

"It was a beautiful time in my life."

e-0--0--0------0--0--0~-|
B-0--0--3------0--0--0~-|
G-2--1--2------2--1--2~-|
D-4--2--0------4--2--2~-|
A-4--2--x------4--2--0~-|
E-x--0--x------x--0--0~-|

Suggestions welcome!

Enjoy!
Добавлено: 24.07.2013
Другие материалы по этой песне:
  • Аккорды и текст

Страница создана 24.07.2013
http://primanota.ru/koji/chasing-a-ghost-chords.htm
Привет, Гость.
Предлагаем пройти революционный курс по гитаре.
Подарок от PrimaNota.Ru, забирай!