PrimaNota.ru - самый крупный в мире бесплатный архив песенных текстов, аккордов, табулатур и нот


Koji Kondo - Super Mario Brothers - таба, видео

Регистрация Запомнить меня
Войти через:  Facebook Google Twitter Vk Yandex Mail.ru

Koji Kondo - Super Mario Brothers - таба, видео

Печатать
Просмотров: 126
Intro
E|---12--12--12-----12—15------------------------|
B|-----------------13----------------------------|
G|-------------------------------12--------------|
D|-----------------------------------------------|
A|-----------------------------------------------|
E|-----------------------------------------------|

E|---8---------5--7-6-5---------0--3-5--1-3-0----------------------|
B|------8--5----------------------------------------1-3-0----------|
G|-----------------------------0-----------------------------------|
D|-----------------------------------------------------------------|    2x
A|-----------------------------------------------------------------|
E|-----------------------------------------------------------------|
Part A
E|------3-2-1-----0------------------------------3-2-1-----0--8--8-8---------|
B|-------------4---------1----------------1-3------------4-----6--6-6--------|
G|----------------------2----------------2-----------------------------------|
D|---------------------3-----------------------------------------------------|
A|---3------------------------------------------3----------------------------|
E|---------------------------------------------------------------------------|
        2x
E|--------3-2-1-------0------------------------------------------------------|
B|---------------4------------1-----1-3---4-3-1------------------------------|
G|---------------------------2-----2-----------------------------------------|
D|--5----------------------3-------------------------------------------------|
A|-----3---------------------------------------------------3-----------------|
E|----------------------------------------------------3-3--------------------|
Part B
E|---------------0------------------------0-----------|
B|--1-1---1--3---1-------1-1--1--1-3------------------|
G|--------------------2-0-----------------------------|
D|---------------------------------------------5------|
A|--------------------------------------------3-3-----|
E|----------------------------------------------------|

E|------------------0-----------|
B|---1-1--1--1-3---1------------|
G|---------------------2-0------|
D|------------------------------|
A|------------------------------|
E|------------------------------|
Intro
E|---12--12--12-----12--15-------------|
B|----------------13-------------------|
G|----------------------------12-------|
D|-------------------------------------|
A|-------------------------------------|
E|-------------------------------------|
Part C
E|--0-----------------1-1-----------5-5-5-3-1---0-----------------|
B|----1----------------------------------------------1------------|
G|-------0--1-2-----------2-----2--------------------2-0----------|
D|----------------------------------------------------------------|
A|----------------------------------------------------------------|
E|----------------------------------------------------------------|

E|---0-------------1-1------------1-1-1-0-----0----------------|
B|-----1------------------------------------3-----1------------|
G|-------0--1-2--------2-------2-------------------2-0---------|
D|-------------------------------------------------------------|
A|-------------------------------------------------------------|
E|-------------------------------------------------------------|
Hurry Up Mario
E|----10--10-10------11--11-11-------12--12-12------13-13--------------|
B|--8---------------9------------------10---------------11-------------|
G|---------------------------------------------------------------------|
D|---------------------------------------------------------------------|
A|---------------------------------------------------------------------|
E|---------------------------------------------------------------------|
Intro
E|---12--12--12-----12—15------------------------|
B|-----------------13----------------------------|
G|-------------------------------12--------------|
D|-----------------------------------------------|
A|-----------------------------------------------|
E|-----------------------------------------------|
Part C
E|--0-----------------1-1-----------5-5-5-3-1---0-----------------|
B|----1----------------------------------------------1------------|
G|-------0--1-2-----------2-----2--------------------2-0----------|
D|----------------------------------------------------------------|
A|----------------------------------------------------------------|
E|----------------------------------------------------------------|

E|---0-------------1-1------------1-1-1-0-----0----------------|
B|-----1------------------------------------3-----1------------|
G|-------0--1-2--------2-------2-------------------2-0---------|
D|-------------------------------------------------------------|
A|-------------------------------------------------------------|
E|-------------------------------------------------------------|
Добавлено: 22.03.2012
Другие материалы по этой песне:
  • Аккорды и текст

Страница создана 22.03.2012
http://primanota.ru/koji-kondo/super-mario-brothers-chords.htm
Привет, Гость.
Предлагаем пройти революционный курс по гитаре.
Подарок от PrimaNota.Ru, забирай!