PrimaNota.ru - самый крупный в мире бесплатный архив песенных текстов, аккордов, табулатур и нот


Koji Kondo - Lon Lon Ranch - таба, видео

Регистрация Запомнить меня
Войти через:  Facebook Google Twitter Vk Yandex Mail.ru

Koji Kondo - Lon Lon Ranch - таба, видео

Печатать
Просмотров: 124
E|10--------10------|
B|---12-10-----12-10|
G|------------------|
D|------------------|
A|------------------|
D|------------------|

E|10----------------|
B|---12-10-12-10----|
G|------------------|
D|------------------|
A|------------------|
D|------------------|

E|--------9-10------|
B|-8-7-11------12---|
G|------------------|
D|------------------|
A|------------------|
D|------------------|

E|10-10-10-9--------|
B|-----------12-10--|
G|------------------|
D|------------------|
A|------------------|
D|------------------|

E|10--------10------|
B|---12-10-----12-10|
G|------------------|
D|------------------|
A|------------------|
D|------------------|

E|10----------------|
B|---12-10-12-10----|
G|------------------|
D|------------------|
A|------------------|
D|------------------|

E|----------9--10---|
B|-8-7-11-12--------|
G|------------------|
D|------------------|
A|------------------|
D|------------------|

E|-10---12--10------|
B|------------------|
G|------------------|
D|------------------|
A|------------------|
D|------------------|

E|--------------------|
B|11-11-11-11-13-11-11|
G|--------------------|
D|--------------------|
A|--------------------|
D|--------------------|

E|------------------|
B|10-10-13s6--------|         s= slide
G|------------------|
D|------------------|
A|------------------|
D|------------------|



E|------------------|
B|8-8-8-8--10-11-10-|
G|------------------|
D|------------------|
A|------------------|
D|------------------|

E|--------------------|
B|11-11-11-11-13-11-11|
G|--------------------|
D|--------------------|
A|--------------------|
D|--------------------|

E|------------------|
B|10-10-13s6--------|         s= slide
G|------------------|
D|------------------|
A|------------------|
D|------------------|


E|------------------|
B|8-8-8-8--10-11-10-|
G|------------------|
D|------------------|
A|------------------|
D|------------------|



Then you repeat the entire song. This is probably the most simple tab ever.




Добавлено: 22.05.2012
Другие материалы по этой песне:
  • Аккорды и текст

Страница создана 22.05.2012
http://primanota.ru/koji-kondo/lon-lon-ranch-chords.htm
Привет, Гость.
Предлагаем пройти революционный курс по гитаре.
Подарок от PrimaNota.Ru, забирай!