PrimaNota.ru - самый крупный в мире бесплатный архив песенных текстов, аккордов, табулатур и нот


Koffin Kats - Graveyard Tree - таба, бас-таба, видео

Регистрация Запомнить меня
Войти через:  Facebook Google Twitter Vk Yandex Mail.ru

Koffin Kats - Graveyard Tree - таба, бас-таба, видео

Печатать
Просмотров: 155
-------------------------------------------------------------------------------
                             Graveyard Tree – Koffin Kats
-------------------------------------------------------------------------------
Tabbed by: Kris Oliver
Email: smokin_bats138@yahoo.com

Tuning:Standard

e|-----------5----------------------------------------5----------------------|
B|-----------5----------------------------------------5----------------------|
G|-----------6--------------------5-5-5-5-------------6----------------------|
D|-7-7-7-----7----7-7-7-7-7-7-7-7-5-5-5-5-5-5-5-5-----7----------------------|
A|-7-7-7-x3--7----7-7-7-7-7-7-7-7-3-3-3-3-5-5-5-5-x4--7----------------------|
E|-5-5-5-----5----5-5-5-5-5-5-5-5---------3-3-3-3-----5----------------------|

e|-3--5----------------------------------------------------------------------|
B|-3--5----------------------------------------------------------------------|
G|-4--6----------------------------------------------------------------------|
D|-5--7-x9-------------------------------------------------------------------|
A|-5--7----------------------------------------------------------------------|
E|-3--5----------------------------------------------------------------------|

e|-------------------------------------7-------------------------------------|
B|-------------------------------------7-------------------------------------|
G|-----------------5-5-5-5-------------6-------------------------------------|
D|-7-7-7-7-7-7-7-7-5-5-5-5-5-5-5-5-----7-------------------------------------|
A|-7-7-7-7-7-7-7-7-3-3-3-3-5-5-5-5-x4--7-------------------------------------|
E|-5-5-5-5-5-5-5-5---------3-3-3-3-----5-------------------------------------|

e|-3--5----------------------------------------------------------------------|
B|-3--5----------------------------------------------------------------------|
G|-4--6----------------------------------------------------------------------|
D|-5--7-x9-------------------------------------------------------------------|
A|-5--7----------------------------------------------------------------------|
E|-3--5----------------------------------------------------------------------|

e|---------------------------------------------------------------------------|
B|---------------------------------------------------------------------------|
G|-----------------5-5-5-5---------------------------------------------------|
D|-7-7-7-7-7-7-7-7-5-5-5-5-5-5-5-5-------------------------------------------|
A|-7-7-7-7-7-7-7-7-3-3-3-3-5-5-5-5-x6----------------------------------------|
E|-5-5-5-5-5-5-5-5---------3-3-3-3-------------------------------------------|

solo
e|-55555555----3333-55555555----12121212-55555555----3333-55555555----5555---|
B|-5555555588883333-55555555888812121212-5555555588883333-5555555588885555---|
G|---------8888-------------8888-----------------8888------------8888--------|
D|---------------------------------------------------------------------------|
A|---------------------------------------------------------------------------|
E|---------------------------------------------------------------------------|

e|-----------5---------------------------------------------------------------|
B|-----------5---------------------------------------------------------------|
G|-----------6--------------------5-5-5-5------------------------------------|
D|-7-7-7-----7----7-7-7-7-7-7-7-7-5-5-5-5-5-5-5-5----------------------------|
A|-7-7-7-x3--7----7-7-7-7-7-7-7-7-3-3-3-3-5-5-5-5-x8-------------------------|
E|-5-5-5-----5----5-5-5-5-5-5-5-5---------3-3-3-3----------------------------|


e|---------------------------------------------------------------------------|
B|---------------------------------------------------------------------------|
G|---------------------------------------------------------------------------|
D|-7-7-7---------------------------------------------------------------------|
A|-7-7-7---------------------------------------------------------------------|
E|-5-5-5---------------------------------------------------------------------|


| /  slide up
| \  slide down
| h  hammer-on
| p  pull-off
| ~  vibrato
| +  harmonic
| x  Mute note
===============================================================================

Добавлено: 21.06.2012
Другие материалы по этой песне:
  • Аккорды и текст

Страница создана 22.05.2012
http://primanota.ru/koffin-kats/graveyard-tree-chords.htm
Привет, Гость.
Предлагаем пройти революционный курс по гитаре.
Подарок от PrimaNota.Ru, забирай!