PrimaNota.ru - самый крупный в мире бесплатный архив песенных текстов, аккордов, табулатур и нот


Kochanka James - Jet Lag - таба, видео

Регистрация Запомнить меня
Войти через:  Facebook Google Twitter Vk Yandex Mail.ru

Kochanka James - Jet Lag - таба, видео

Печатать
Просмотров: 75
James Kochalka Superstar - Jet lag

Tabbed by Logan Raarup (logan@logan.dk)
====================================================

Riff 1:
|--------------------------------------------------|
|--------------------------------------------------|
|--------------------------------------------------|
|-2--2-5--5-5-5-9-9-7--7-7-7-----------------------|
|-0--0-3--3-3-3-7-7-5--5-5-5-----------------------|
|--------------------------------------------------|

Riff 2:
|--------------------------------------------------|
|--------------------------------------------------|
|--------------------------------------------------|
|-2--2-9--9-9-9-7-5~-------------------------------|
|-0--0-7--7-7-7-5-3~-------------------------------|
|--------------------------------------------------|

Riff 3:
|--------------------------------------------------|
|--------------------------------------------------|
|--------------------------------------------------|
|-2-x-x-2-x-x-2-x-5-5------------------------------|
|-0-x-x-0-x-x-0-x-7-3------------------------------|
|--------------------------------------------------|

Lyrics:

[Riff 1]
Jet lag...
Jet lag..
But I'd be...

[Riff 2]
But Coca-Cola...

[Riff 1]
Jet lag...
Jet lag..
But I'd be...

[Riff 2]
But Coca-Cola...

[Riff 3]
Jet-jet-jet-jet lag
Jet-jet-jet-jet lag
Jet-jet-jet-jet lag

[Riff 2]
But Coca-Cola...

[Riff 1]
Jet lag...
Jet lag..
But I'd be...

[Riff 2]
But Coca-Cola...

[Riff 3]
Jet-jet-jet-jet lag
Jet-jet-jet-jet lag
Jet-jet-jet-jet lag

[Riff 2]
But Coca-Cola...

[Riff 3]
Jet-jet-jet-jet lag
Jet-jet-jet-jet lag
Jet-jet-jet-jet lag

[Riff 2]
But Coca-Cola...

     
Добавлено: 30.09.2013
Вам также может быть интересно:
Другие материалы по этой песне:
  • Аккорды и текст

Страница создана 30.09.2013
http://primanota.ru/kochanka-james/jet-lag-chords.htm
Привет, Гость.
Предлагаем пройти революционный курс по гитаре.
Подарок от PrimaNota.Ru, забирай!