PrimaNota.ru - самый крупный в мире бесплатный архив песенных текстов, аккордов, табулатур и нот


Kochalka James Superstar - Kitty In A Coma - аккорды и текст, видео

Регистрация Запомнить меня
Войти через:  Facebook Google Twitter Vk Yandex Mail.ru

Kochalka James Superstar - Kitty In A Coma - аккорды и текст, видео

Печатать
Просмотров: 76
Kitty In A Coma
Kochalka James Superstar
Artist: James Kochalka Superstar
Song: Kitty in a Coma
Album: Carrot Boy, the Beuatiful
Transcribed By: Andy

This is not a hard song to play or sing to, I am pretty sure this is correct.

Verse:

 A minor           G

e---5--------------3---------
B---5--------------4---------
G---5--------------5---------
D---7--------------5---------
A---7--------------5---------
E---5--------------3---------
    Kitty, can you hear me?

e---5--------------3-----------
B---5--------------4-----------
G---5--------------5-----------
D---7--------------5-----------
A---7--------------5-----------
E---5--------------3-----------
    If you can, wiggle your ear

Chorus:

  A minor     G     F
e-5-5-5-5-5-5-3-3-3-1
B-5-5-5-5-5-5-3-3-3-1
G-5-5-5-5-5-5-4-4-4-2
D-7-7-7-7-7-7-5-5-5-3
A-7-7-7-7-7-7-5-5-5-3
E-5-5-5-5-5-5-3-3-3-1
  Kitty in a  com - a


  A minor     G    F
e-5-5-5-5-5-5-5-3---1-1-1-1-1-3---1
B-5-5-5-5-5-5-5-3---1-1-1-1-1-3---1
G-5-5-5-5-5-5-5-4---2-2-2-2-2-4---2
D-7-7-7-7-7-7-7-5---3-3-3-3-3-5---3
A-7-7-7-7-7-7-7-5---3-3-3-3-3-5---3
E-5-5-5-5-5-5-5-3---1-1-1-1-1-3---1
  Kitty's in a  com-a and I'm cry-ing

VERSE

CHORUS:
VERSE

CHORUS

CHORUS

This is a funny song, and surprisingly catchy (like all james kochalka songs)  To hear this and other songs by JKS, go to www.mp3.com/jks

This is all my own work, just by listening to the cd.
     
Добавлено: 17.11.2013
Вам также может быть интересно:
Другие материалы по этой песне:
  • Аккорды и текст

Страница создана 16.08.2013
http://primanota.ru/kochalka-james-superstar/kitty-in-a-coma-chords.htm
Привет, Гость.
Предлагаем пройти революционный курс по гитаре.
Подарок от PrimaNota.Ru, забирай!