PrimaNota.ru - самый крупный в мире бесплатный архив песенных текстов, аккордов, табулатур и нот


Koan Sound - Funk Blaster - бас-таба, видео

Регистрация Запомнить меня
Войти через:  Facebook Google Twitter Vk Yandex Mail.ru

Koan Sound - Funk Blaster - бас-таба, видео

Печатать
Просмотров: 99
Song: Funk Blaster                                     
Album: Funk Blaster
Band: Koan Sound
Tuning: Drop D

        Fun song to slap to, very hard to comprehend towards the end however. 
I recommend just having fun with it, this tab is just an approximate of the song.


Part 1:
|----------------|------------------------|
|----------------|-------------3h1--------|
|----------------|----------------3h1-----|
|3---------------|3/15-----------------6--|

|----------------|------------------------------------------|
|----------------|------------------------------------------|
|----------------|------------------------------------1-----|
|3---------------|3/15---13----10----8---6---3---1h3/6---6--|
 
|----------------|------------------------|
|----------------|---------------------3--|
|----------------|------------------------|
|3---------------|3/15~-------------------|

|----------------|---------1--3--5--8-----|
|6-------8-------|---1--3-----------------|
|----------------|3-----------------------|
|----------------|------------------------|

Part 2:
|------------------|1---3p1--------------|
|------------------|-------3p1-----------|
|------------------|------------3-1------|
|13-10---8--6--3---|------------------6--|

|------------------|------------------------|
|--------3---------|------------------------|
|----------1-3-----|---7~---------1---------|
|3/6X----------6---|-------3--6--------6--3-|

|1---3p1--------------|-------------------|
|-------3p1-----------|---------3---------|
|------------3-1------|-----------1-3-----|
|------------------6--|3/6X-------------6-|

|------------0--------|
|-----1----------1----|
|1--3----------3------|
|---------------------|

|------------------|1---3p1--------------|
|------------------|-------3p1-----------|
|------------------|------------3-1------|
|15-10---8--6--3---|------------------6--|




|------------------|------------------------|
|--------3---------|------------------------|
|----------1-3-----|---7~---------1---------|
|3/6X----------6---|-------3--6--------6--3-|

|-----------1--3-1----|------------------|
|1---3p1h3---------3--|------------------|
|---------------------|------------------|
|---------------------|3-----6-----8-----|

|-------------|
|3p1----------|
|---3p1-------|
|-----------6-|

Part 3:
(Best I could make of it, mostly noise)
|----------------|------------|
|----------------|------------|
|--------------1-|------------|
|3---------------|6---------6-|
             
|----------------|------------|
|----------------|----1-------|
|1--------------1|-3-----3-1--|
|----------------|-----------6|
 
Part 1:
|----------------|------------------------|
|----------------|-------------3h1--------|
|----------------|----------------3h1-----|
|3---------------|3/15-----------------6--|

|----------------|------------------------------------------|
|----------------|------------------------------------------|
|----------------|------------------------------------1-----|
|3---------------|3/15---13----10----8---6---3---1h3/6---6--|
 
|----------------|------------------------|
|----------------|---------------------3--|
|----------------|------------------------|
|3---------------|3/15~-------------------|

|----------------|---------1--3--5--8-----|
|6-------8-------|---1--3-----------------|
|----------------|3-----------------------|
|----------------|------------------------|

Part 2:
|------------------|1---3p1--------------|
|------------------|-------3p1-----------|
|------------------|------------3-1------|
|13-10---8--6--3---|------------------6--|

|------------------|------------------------|
|--------3---------|------------------------|
|----------1-3-----|---7~---------1---------|
|3/6X----------6---|-------3--6--------6--3-|

|1---3p1--------------|-------------------|
|-------3p1-----------|---------3---------|
|------------3-1------|-----------1-3-----|
|------------------6--|3/6X-------------6-|

|------------0--------|
|-----1----------1----|
|1--3----------3------|
|---------------------|

|------------------|1---3p1--------------|
|------------------|-------3p1-----------|
|------------------|------------3-1------|
|15-10---8--6--3---|------------------6--|




|------------------|------------------------|
|--------3---------|------------------------|
|----------1-3-----|---7~---------1---------|
|3/6X----------6---|-------3--6--------6--3-|

|-----------1--3-1----|------------------|
|1---3p1h3---------3--|------------------|
|---------------------|------------------|
|---------------------|3-----6-----8-----|

|-------------|
|3p1----------|
|---3p1-------|
|-----------6-|

Part 3:
(Best I could make of it, mostly noise)
|----------------|------------|
|----------------|------------|
|--------------1-|------------|
|3---------------|6---------6-|
             
|----------------|------------|
|----------------|----1-------|
|1--------------1|-3-----3-1--|
|----------------|-----------6|
 
Добавлено: 04.08.2015
Другие материалы по этой песне:
  • Аккорды и текст

Страница создана 04.08.2015
http://primanota.ru/koan-sound/funk-blaster-chords.htm
Привет, Гость.
Предлагаем пройти революционный курс по гитаре.
Подарок от PrimaNota.Ru, забирай!