PrimaNota.ru - самый крупный в мире бесплатный архив песенных текстов, аккордов, табулатур и нот


Knuckledust - Damaged - таба, видео

Регистрация Запомнить меня
Войти через:  Facebook Google Twitter Vk Yandex Mail.ru

Knuckledust - Damaged - таба, видео

Печатать
Просмотров: 109
Knuckledust - Damaged
Tabbed by Ste Stedz


Gtr I (E A D G B E)

   Intro
    Q=160
   4/4
    Gtr I
    PM----|     PM      PM    PM
    E S S E E E E E E   E E E E E E E E  6x
||--------------------|------------------||
||o-------------------|-----------------o||
||--------------------|------------------||
||--------------------|------------------||
||o-2-2-2-2-3-2---3-5-|---5-6---6-5-3-5-o||
||--0-0-0-0-1-0-0-1-3-|-0-3-4-0-4-3-1-3--||


  PM----|     PM      PM
  E S S E E E E E E   E E E E E Q
|-------------------|-------------|
|-------------------|-------------|
|-------------------|-------------|
|-------------------|-------------|
|-2-2-2-2-3-2---3-5-|---5-6---6---|
|-0-0-0-0-1-0-0-1-3-|-0-3-4---4---|


   Verse
    $
    E Q  Q  Q  E   E Q  E E Q  E   E Q  E E Q  E   E Q  E E Q  E   3x
||---------------|---------------|---------------|-----------------||
||o--------------|---------------|---------------|----------------o||
||---------------|---------------|---------------|-----------------||
||---------------|---------------|---------------|-----------------||
||o-5-5--5--5--5-|-5-6--6-6-3--3-|-2-2--2-2-3--3-|-2-2--2-6-3--3--o||
||--3-3--3--3--3-|-3-4--4-4-1--1-|-0-0--0-0-1--1-|-0-0--0-4-1--1---||


  E Q  Q  Q  E   E Q  E Q  Q
|--------------|--------------|
|--------------|--------------|
|--------------|--------------|
|--------------|--------------|
|-5-5--5--5--5-|-5-6--6-6--3--|
|-3-3--3--3--3-|-3-4--4-4--1--|


   Chorus
    Q=120
                                                      D.S.
    PM----|   PM------|   PM|     PM----|   PM------|
    S S S S E S S   S S E S S E   S S S S E S S   S S E E E  5x
||----------------|-------------|---------------|------------||
||o---------------|-------------|---------------|-----------o||
||----------------|-------------|---------------|------------||
||----------------|-------------|---------------|------------||
||o---------2-----|-----3-----3-|---------2-----|-----3-5-3-o||
||--1-1-1-1-0-4-4-|-4-4-1-3-3-1-|-1-1-1-1-0-4-4-|-4-4-1-3-1--||


   Bridge
    Q=100
    Q   E.  E.  E   E   E    Q   E.  E.  E   E   E
||------0-----------0------|-----0-----------0------|
||o---------0-----------0--|---------0-----------0--|
||--------------0----------|-------------0----------|
||-------------------------|------------------------|
||o-2--(2)-(2)-(2)-(2)-(2)-|-3--(3)-(3)-(3)-(3)-(3)-|
||--0--(0)-(0)-(0)-(0)-(0)-|-1--(1)-(1)-(1)-(1)-(1)-|


                          1.
  Q   E.  E.  E   E   E    E S E S E S S S S Q
|-----0-----------0------|------------------------||
|---------0-----------0--|-----------------------o||
|-------------0----------|------------------------||
|------------------------|------------------------||
|-2--(2)-(2)-(2)-(2)-(2)-|-6-6-6-6-6-6-6-6-6-6---o||
|-0--(0)-(0)-(0)-(0)-(0)-|-4-4-4-4-4-4-4-4-4-4----||


                Breakdown
  1.         Q=160
                 PM----|      PM----|
  H    Q  Q      E E E E E E  S S S S E E E E E E E E 12x
|------------||----------------------------------------||
|------------||o--------------------------------------o||
|------------||----------------------------------------||
|------------||----------------------------------------||
|-6----5--3--||o---------2------------3-2---3-6-5-3---o||
|-4----3--1--||--1-1-1-1-0----0-0-0-0-1-0---1-4-3-1----||


Duration Legend
---------------
W - whole; H - half; Q - quarter; E - 8th; S - 16th; T - 32nd; X - 64th; a - acciaccatura
+ - note tied to previous; . - note dotted; .. - note double dotted
Uncapitalized letters represent notes that are staccato (1/2 duration)
Irregular groupings are notated above the duration line
Duration letters will always appear directly above the note/fret number it represents the
duration for.  Duration letters with no fret number below them represent rests.  Multi-
bar rests are notated in the form Wxn, where n is the number of bars to rest for.  Low
melody durations appear below the staff

Tablature Legend
----------------
 h   - hammer-on
 p   - pull-off
 b   - bend
 pb  - pre-bend
 r   - bend release (if no number after the r, then release immediately)
 /\  - slide into or out of (from/to "nowhere")
 s   - legato slide
 S   - shift slide
  - natural harmonic
[n]  - artificial harmonic
n(n) - tapped harmonic
 ~   - vibrato
 tr  - trill
 T   - tap
 TP  - trem. picking
 PM  - palm muting
\n/  - tremolo bar dip; n = amount to dip
 \n  - tremolo bar down
 n/  - tremolo bar up
/n\  - tremolo bar inverted dip
 =   - hold bend; also acts as connecting device for hammers/pulls
 <>  - volume swell (louder/softer)
 x   - on rhythm slash represents muted slash
 o   - on rhythm slash represents single note slash

Misc Legend
-----------
 |  - bar
||  - double bar
||o - repeat start
o|| - repeat end
*|  - double bar (ending)
 :  - bar (freetime)
 $  - Segno
 &  - Coda
Tempo markers -  = BPM(8/16=s8/s16), where s8 = swing 8ths, s16 = swing 16ths
Добавлено: 18.07.2012
Вам также может быть интересно:
Другие материалы по этой песне:
  • Аккорды и текст

Страница создана 18.07.2012
http://primanota.ru/knuckledust/damaged-chords.htm
Привет, Гость.
Предлагаем пройти революционный курс по гитаре.
Подарок от PrimaNota.Ru, забирай!