PrimaNota.ru - самый крупный в мире бесплатный архив песенных текстов, аккордов, табулатур и нот


Knuckle Puck - True Contrite - таба, видео

Регистрация Запомнить меня
Войти через:  Facebook Google Twitter Vk Yandex Mail.ru

Knuckle Puck - True Contrite - таба, видео

Печатать
Просмотров: 48
-------------------------------------------------------------------------------
                             True Contrite - Knuckle Puck
-------------------------------------------------------------------------------
Tabbed by: AdamC1997
E-mail: adam.couts@yahoo.com

Tuning: Eb (Half Step down)

Note: This is personally how I would play the song as just one guitarist.

Intro 0:05 - 0:11
e|---------------------------------------------------------------------------|
B|---------------------------------------------------------------------------|
G|---------------------------------------------------------------------------|
D|-----------------------------------7-7-7-7--7-7--7--7----------------------|
A|---5--5--5-5-5-5--5-5--5--5---5-5--5-5-5-5--5-5--5--5----------------------|
E|---3--3--3-3-3-3--3-3--0--0---3-3--3-3-3-3--3-3--0--0----------------------|

Intro 0:12 - 0:24
e|---------------------------------------------------------------------------|
B|-------------------------------------------------------------------------o-|
G|-------------9--------------------------9----------------------------------|
D|--------7------------7\6b---------7-------------7/11b----------------------|
A|---5------------------------5--------------------------------------------o-|
E|---------------------------------------------------------------------------|

Pre Verse 0:25 - 0:31
e|---------------------------------------------------------------------------|
B|---------------------------------------------------------------------------|
G|---------------------------------------------------------------------------|
D|---------------------------------------------------------------------------|
A|--5-5-5-5-5-5-5-5-5-5-5-5-5-5-5-5-5-5-5-5-5-5-5-5-5-5-5-5-5-5-5-5----------|
E|--3-3-3-3-3-3-3-3-3-3-3-3-0-0-0-0-3-3-3-3-3-3-3-3-3-3-3-3-0-0-0-3----------|
    x x x x x x x x x x x x x x x x x x x x x x x x x x x x x  

Verse 0:32 - 0:57
e|---------------------------------------------------------------------------|
B|-------------------------------------------------------------------------o-|
G|---------------------------------------------------------------------------|
D|--------------------------------------------------9-9-9-9-7-7-7------------|
A|--5-5-5-5-5-5-5-5-5-5-5-5-5-5-5-5-5-5-5-5-5-5-5-5-7-7-7-7-5-5-5-5--------o-|
E|--3-3-3-3-3-3-3-3-0-0-0-0-0-0-0-0-3-3-3-3-3-3-3-3---------------3----------|
    x x x x x x x x x x x x x x x x x x x x x x x x x x x x x x x 

Pre Chorus 0:58 - 1:03
e|---------------------------------------------------------------------------|
B|---------------------------------------------------------------------------|
G|---------------------------------------------------------------------------|
D|------7-------7/11---------------------------------------------------------|
A|-----5-------5-------------------------------------------------------------|
E|----3-------3--------------------------------------------------------------|

This is more of a slow strum, don't pluck the notes.


This is all lead in the chorus.
Chorus 1:04 - 1:31
e|---------------------------------------------------------------------------|
B|---------------------------------------------------------------------------|
G|---------------------------------------------------------------------------|
D|--7-7-7-7-7-7-7-7-7-7-7-7-7-7-7------7-7-7-7-7-7-7-7---7-7-----------------|
A|--5-5-5-5-5-5-5-5-5-5-5-5-5-5-5------5-5-5-5-5-5-5-5---5-5-----------------|
E|---------------------------------------------------------------------------|

e|---------------------------------------------------------------------------|
B|---------------------------------------------------------------------------|
G|---------------------------------------------------------------------------|
D|--7-7-7-7-7-7-7-7-7-7-7-7-7-7-7\6b---7-7-7-7---7---7-----------------------|
A|--5-5-5-5-5-5-5-5-5-5-5-5-5-5--------5-5-5-5---5---5-----------------------|
E|---------------------------------------------------------------------------|

e|---------------------------------------------------------------------------|
B|---------------------------------------------------------------------------|
G|---------------------------------------------------------------------------|
D|--7-7-7-7-7-7-7-7-7-7-7-7-7-7-7/11b--7-7-7-7---7---7-----------------------|
A|--5-5-5-5-5-5-5-5-5-5-5-5-5-5--------5-5-5-5---5---5-----------------------|
E|---------------------------------------------------------------------------|

Post Chorus 1:32 - 1:45
e|---------------------------------------------------------------------------|
B|-------------------------------------------------------------------------o-|
G|-------9-------9-------9-------9b------------------------------------------|
D|-----7---7---7---7---7---7---7---------------------------------------------|
A|---5-------5-------5-------5---------------------------------------------o-|
E|---------------------------------------------------------------------------|

Post Chorus 1:46 - 1:50
e|---------------------------------------------------------------------------|
B|---------------------------------------------------------------------------|
G|-------------------9-----9-------------------------------------------------|
D|--------7-------7-----7----------------------------------------------------|
A|--55-5--5----5-------------------------------------------------------------|
E|--00-0--3------------------------------------------------------------------|
    xx x

Post Chorus 1:51 - 1:56
e|---------------------------------------------------------------------------|
B|---------------------------------------------------------------------------|
G|-----------------------------------9-----9---------------------------------|
D|----------------------------7----7----7------------------------------------|
A|----5-5-5------------5--5---5--5-------------------------------------------|
E|----0-0-0------------3--3---3----------------------------------------------|
      x x x            x  x

Verse 1:57 - 2:02
e|---------------------------------------------------------------------------|
B|---------------------------------------------------------------------------|
G|---------------------------------------------------------------------------|
D|---------------------------------------------------------------------------|
A|----5---5-5-5-5---5-5-----5---5-5-5-5---5-5--------------------------------|
E|----3---3-0-3-3---0-0-----3---3-0-3-3---0-0--------------------------------|
      x   x x x x   x x     x   x x x x   x x

Verse 2:03 - 2:09
e|---------------------------------------------------------------------------|
B|-------------------------------------------------------------------------o-|
G|-------------9--------------------------9----------------------------------|
D|--------7------------7\6b---------7-------------7/11b----------------------|
A|---5------------------------5--------------------------------------------o-|
E|---------------------------------------------------------------------------|

Verse 2:10 - 2:27
                                            1          2              3
e|--------------------------------------|------|-------------|---------------|
B|--------------------------------------|-----o|------------o|--------------o|
G|--------------------------------------|------|-------------|---------------|
D|--------------------------------------|------|-------------|---------------|
A|----5---5-5-5-5---5-5-----5---5-5-5-5-|-5-5-o|------------o|--5---------5-o|
E|----3---3-3-3-3---0-0-----3---3-3-3-3-|-0-0--|--0--0--0--0-|--0-0-0-0-0-0--|
                                                  x  x  x  x    x x x x x 

Chorus
2:28 - 2:52

e|---------------------------------------------------------------------------|
B|---------------------------------------------------------------------------|
G|---------------------------------------------------------------------------|
D|--7-7-7-7-7-7-7-7-7-7-7-7-7-7-7------7-7-7-7-7-7-7-7---7-7-----------------|
A|--5-5-5-5-5-5-5-5-5-5-5-5-5-5-5------5-5-5-5-5-5-5-5---5-5-----------------|
E|---------------------------------------------------------------------------|

e|---------------------------------------------------------------------------|
B|---------------------------------------------------------------------------|
G|---------------------------------------------------------------------------|
D|--7-7-7-7-7-7-7-7-7-7-7-7-7-7-7\6b---7-7-7-7---7---7-----------------------|
A|--5-5-5-5-5-5-5-5-5-5-5-5-5-5--------5-5-5-5---5---5-----------------------|
E|---------------------------------------------------------------------------|

e|---------------------------------------------------------------------------|
B|---------------------------------------------------------------------------|
G|---------------------------------------------------------------------------|
D|--7-7-7-7-7-7-7-7-7-7-7-7-7-7-7/11b--7-7-7-7---7---7-----------------------|
A|--5-5-5-5-5-5-5-5-5-5-5-5-5-5--------5-5-5-5---5---5-----------------------|
E|---------------------------------------------------------------------------|


Post Chorus 2:53 - 3:05
                                           Played on last time.
e|------------------------------------|--------------------------------------|
B|----------------------------------o-|--------------------------------------|
G|-------9-------9-------9-------9b---|---\6---------------------------------|
D|-----7---7---7---7---7---7---7------|--------------------------------------|
A|---5-------5-------5-------5------o-|--------------------------------------|
E|------------------------------------|--------------------------------------|

Guitar is not played through 3:06 - 3:31

Post Chorus 3:32 - 4:45
e|---------------------------------------------------------------------------|
B|---------------------------------------------------------9---9-----------o-|
G|-------7-------7-------9---9------7-------7-------7---9----9---------------|
D|-----7---7---7---7---7---7------7---7---7---7---7--------------------------|
A|---5-------5-------5----------5-------5-------5--------------------------o-|
E|---------------------------------------------------------------------------|

Repeated all the way until the end.
************************************

| /   slide up
| \   slide down
| h   hammer-on
| p   pull-off
| ~   vibrato
| +   harmonic
| x   Mute note
| b   Bend
| pb  Pre-bend
| br  Bend release
| pbr Pre-bend release
| brb Bend release bend

************************************
Добавлено: 09.05.2016
Другие материалы по этой песне:
  • Аккорды и текст

Страница создана 09.05.2016
http://primanota.ru/knuckle-puck/true-contrite-chords.htm
Привет, Гость.
Предлагаем пройти революционный курс по гитаре.
Подарок от PrimaNota.Ru, забирай!