PrimaNota.ru - самый крупный в мире бесплатный архив песенных текстов, аккордов, табулатур и нот


Knuckle Puck - Stateside - таба, видео

Регистрация Запомнить меня
Войти через:  Facebook Google Twitter Vk Yandex Mail.ru

Knuckle Puck - Stateside - таба, видео

Печатать
Просмотров: 64
-------------------------------------------------------------------------------
                             SONG NAME - Band Name
-------------------------------------------------------------------------------
Tabbed by: Aaron D.

Tuning: half step down

 its not much but I like the part so I tabbed it out
 

* = palm mute

eb|---------------------------------------------------------------------------|
Bb|---------------------------------------------------------------------------|
Gb|---------------------------------------------------------------------------|
Db|-11--------11----11--11--11-11-11-11-11--------11----11--11--11-11-11-11---|
Ab|--9---------9-----9---9---9--9--9--9--9---------9-----9---9---9--9--9--9---|
Eb|--7---7-7-7-7-7-7-7-7-7-7-7--7--7--7--7---7-7-7-7-7-7-7-7-7-7-7--7--7--7---|
        * * *   * *   *   *                 * * *   * *   *   *  
eb|---------------------------------------------------------------------------||
Bb|--------------------------------------------------------------------------.||
Gb|-6---------6---------------------------------------------------------------||
Db|-6---------6---6---------6-6-6-6-------------------------------------------||
Ab|-4---4-4-4-4---6---------6-6-6-6------------------------------------------.||
Eb|-----*-*-*-----4---4-4-4-4-4-4-4-------------------------------------------||
                     * * *

************************************

| /   slide up
| \   slide down
| h   hammer-on
| p   pull-off
| ~   vibrato
| +   harmonic
| x   Mute note
| b   Bend
| pb  Pre-bend
| br  Bend release
| pbr Pre-bend release
| brb Bend release bend

************************************
Добавлено: 09.03.2016
Вам также может быть интересно:
Другие материалы по этой песне:
  • Аккорды и текст

Страница создана 09.03.2016
http://primanota.ru/knuckle-puck/stateside-chords.htm
Привет, Гость.
Предлагаем пройти революционный курс по гитаре.
Подарок от PrimaNota.Ru, забирай!