PrimaNota.ru - самый крупный в мире бесплатный архив песенных текстов, аккордов, табулатур и нот


Knuckle Puck - Ponder - таба, видео

Регистрация Запомнить меня
Войти через:  Facebook Google Twitter Vk Yandex Mail.ru

Knuckle Puck - Ponder - таба, видео

Печатать
Просмотров: 68
You can listen to the song and play along or here's a video of me playing it 
acoustically but it's a little bit of a simpler version
https://www.youtube.com/watch?v=uJ_YwGgaAM4

Intro

Eb|---------------|
Bb|---------------|
Gb|-------0-------|
Db|----------4p0--|
Ab|--3/5----------|
Eb|---------------|

Eb|------------------------------------------------------------------------------------------------|
Bb|------------------------------------------------------------------------------------------------|
Gb|--------0-----------0-----------0-----------0-----------0-----------0-----------0-------0-------|
Db|-----0-----0-----0-----0-----0-----0-----0-----0-----0-----0-----0-----0-----0-------------4p0--|
Ab|--7-----------7-----------6-----------6-----------2-----------2-----------3--------3/5----------|
Eb|------------------------------------------------------------------------------------------------|


Eb|-----------------------------------------------------------------------------------------------------|
Bb|-----------------------------------------------------------------------------------------------------|
Gb|--------0-----------0-----------0------------0-----------0-----------0-----------0--------0----------|
Db|-----0-----0-----0-----0-----0-----0------0-----0-----0-----0-----0-----0-----0--------------4p0--0~-|
Ab|--7-----------7-----------6-----------12-----------2-----------2-----------3--------3--5----------7~-|
Eb|-----------------------------------------------------------------------------------------------------|

Verse:
Come Back in with this

Eb|---------------|
Bb|---------------|
Gb|-------0-------|
Db|----------4p0--|
Ab|--3/5----------|
Eb|---------------|

Repeat the next two lines twice until he says "If it were me"

Eb|------------------------------------------------------------------------------------------------|
Bb|------------------------------------------------------------------------------------------------|
Gb|--------0-----------0-----------0-----------0-----------0-----------0-----------0-------0-------|
Db|-----0-----0-----0-----0-----0-----0-----0-----0-----0-----0-----0-----0-----0-------------4p0--|
Ab|--7-----------7-----------6-----------6-----------2-----------2-----------3--------3/5----------|
Eb|------------------------------------------------------------------------------------------------|


Eb|-------------------------------------------------------------------------------------------------|
Bb|-------------------------------------------------------------------------------------------------|
Gb|--------0-----------0-----------0------------0-----------0-----------0-----------0-------0-------|
Db|-----0-----0-----0-----0-----0-----0------0-----0-----0-----0-----0-----0-----0-------------4p0--|
Ab|--7-----------7-----------6-----------12-----------2-----------2-----------3--------3/5----------|
Eb|-------------------------------------------------------------------------------------------------| (X2)

Outro:
Repeat these two three times.

Eb|-----------------------------------------------------------------------------------------------|
Bb|-----------------------------------------------------------------------------------------------|
Gb|--------0-----------0-----------0-----------0-----------0-----------0--------2p0-------0-------|
Db|-----0-----0-----0-----0-----0-----0-----0-----0-----0-----0-----0-----0------------------4p0--|
Ab|--7-----------7-----------6-----------6-----------2-----------2-----------3-------3/5----------|
Eb|-----------------------------------------------------------------------------------------------|


Eb|-----------------------------------------------------------------------------------------------|
Bb|--------------------------------------------------------0-----------0--------------------------|
Gb|--------0-----------0-----------0-----------0--------------0-----------0-----2p0-------0-------|
Db|-----0-----0-----0-----0-----0-----0-----0-----0-----0-----------0------------------------4p0--|
Ab|--7-----------7-----------6-----------6-----------2-----------2-----------3-------3/5----------|
Eb|-----------------------------------------------------------------------------------------------|   (X3)

End on this

Eb|-----|
Bb|-----|
Gb|-----|
Db|--0~-|
Ab|--7~-|
Eb|-----|
Добавлено: 08.12.2015
Другие материалы по этой песне:
  • Аккорды и текст

Страница создана 08.12.2015
http://primanota.ru/knuckle-puck/ponder-chords.htm
Привет, Гость.
Предлагаем пройти революционный курс по гитаре.
Подарок от PrimaNota.Ru, забирай!