PrimaNota.ru - самый крупный в мире бесплатный архив песенных текстов, аккордов, табулатур и нот


Knuckle Puck - Oak Street - аккорды и текст, видео

Регистрация Запомнить меня
Войти через:  Facebook Google Twitter Vk Yandex Mail.ru

Knuckle Puck - Oak Street - аккорды и текст, видео

Печатать
Просмотров: 74
Oak Street
Knuckle Puck
TABBED BY https://www.youtube.com/user/LittleBlueGuitars182

Artist: Knuckle Puck
Song Name: Oak Street
Intro
e----------------------------------------------------------------|
B---------0---------------------------------0--------------------|
G----3----4----3------3--3--3--------3------3------3----3--3--3--|
D----4---------4------4--4--4--------4------4------4----4--4--4--|
A----x---------x------x--x--x--------x------x------x----x--x--x--|
E----0---------0------0--0--0--------2------2------2----2--2--2--|

e---------------------------------------------------------------------------|
B-------0--4-----4------4--4--4---------------0-----------------------------|
G----3-----3-----3------3--3--3----------3-------3--------3----3----3----3--|
D----4-----4-----4------4--4--4----------4----------4-----4----4----4----4--|
A----x-----x-----x------x--x--x----------4----------------4----4----4----4--|
E----4-----4-----4------4--4--4----------2----------------2----2----2----2--|
                                                          PM................

Verse (x2)
e-------------------------------------------------------------------------|
B-------------------------------------------------------------------------|
G---4----4------4--4--4---------4---4-----4--4--4------4---4-----4--4--4--|
D---2----2------2--2--2---------4---4-----4--4--4------4---4-----4--4--4--|
A---2----2------2--2--2--(x2)---x---x-----x--x--x------x---x-----x--x--x--|
E---0----0------0--0--0---------2---2-----2--2--2------4---4-----4--4--4--|

e---------------------------------------------------------------------------|
B---------------------------------------------------------------------------|
G--4---4------4--4--4------------4----4----4--4--4-------4---4-----4--4--4--|
D--2---2------2--2--2------------4----4----4--4--4-------4---4-----4--4--4--|
A--2---2------2--2--2--(x2)------x----x----x--x--x-------x---x-----x--x--x--|
E--0---0------0--0--0------------4----4----4--4--4-------2---2-----2--2--2--|

Chorus (x4)
e-----------------------------------------------------------------------------------|
B-----------------------------------------------------------------------------------|
G--4--4--4--4--x--4--4--4------4--4--4--4--x--4--4--4-------4--4--4--4--x--4--4--4--|
D--2--2--2--2--x--2--2--2(x2)-4--4--4--4--x--4--4--4-------4--4--4--4--x--4--4--4---|
A--2--2--2--2--x--2--2--2------x--x--x--x--x--x--x--x-------x--x--x--x--x--x--x--x--|
E--0--0--0--0--x--0--0--0------4--4--4--4--x--4--4--4-------2--2--2--2--x--2--2--2--|

Pre-Verse (x2)
e---------------------------------------------------------------------------------------------------|
B---------------------------------------------------------------------------------------------------|
G--4----4----4--4--4-----4--4--4------4--4--4--4------4---4-----4--4--4-----4--4--4-----4--4--4--4--|
D--2----2----2--2--2-----2--2--2------2--2--2--2------4---4-----4--4--4-----4--4--4-----4--4--4--4--|
A--2----2----2--2--2-----2--2--2------2--2--2--2------x---x-----x--x--x-----x--x--x-----x--x--x--x--|
E--0----0----0--0--0-----0--0--0------0--0--0--0------2---2-----2--2--2-----2--2--2-----2--2--2--2--|

e-----------------------------------------------------------------------------------------------|
B-----------------------------------------------------------------------------------------------|
G---4---4-----4--4--4-----4--4--4-----4--4--4--4-----4---4-----4--4--4-----4--4--4-----4--4--4--|
D---4---4-----4--4--4-----4--4--4-----4--4--4--4-----4---4-----4--4--4-----4--4--4-----4--4--4--|
A---x---x-----x--x--x-----x--x--x-----x--x--x--x-----x---x-----x--x--x-----x--x--x-----x--x--x--|
E---4---4-----4--4--4-----4--4--4-----4--4--4--4-----2---2-----2--2--2-----2--2--2-----2--2--2--|


e-------------------------------------------------------------------------|
B-------------------------------------------------------------------------|
G-------------------------------------------------------------------------|
D-------------------------------------------------------------------------|
A---4/6\4\2---------------------------------------------------------------|
E-------------------------------------------------------------------------|

*Second time around, don't play the slide riff above, just go back to the 2,x,4,4 chord
*Repeat the verse
*Repeat the chorus

Bridge (x3)
e--------------------------------------------------------------------------|
B--------------------------------------------------------------------------|
G---4~-------------------------------------------4~------------------------|
D---2~-------------------------------------------4~------------------------|
A---2~-------------------------------------------x-------------------------|
E---0-0-0-0-0-0-0-0---2-2-2-2-2-2-2-2---4-4-4-4-4-4-4-4---2-2-2-2-2-2-2-2--|

*On the 2nd and 3rd time around, only play the notes on the E string

Bridge 2
e----------------------------------------------------------------------------|
B----------------------------------------------------------------------------|
G--4--4--4--4--x--4--4-----4--4--4--4--x--4--4--4----4--4--4--4--x--4--4--4--|
D--2--2--2--2--x--2--2-----4--4--4--4--x--4--4--4----4--4--4--4--x--4--4--4--|
A--2--2--2--2--x--2--2-----x--x--x--x--x--x--x--x----x--x--x--x--x--x--x--x--|
E--0--0--0--0--x--0--0-----2--2--2--2--x--2--2--2----4--4--4--4--x--4--4--4--|

e------------------------------------------------------------------------------------|
B------------------------------------------------------------------------------------|
G----4--4--4--4--x--4--4--4----------------------------------------------------------|
D----4--4--4--4--x--4--4--4----------------------------------------------------------|
A----x--x--x--x--x--x--x--x----------------------------------------------------------|
E----2--2--2--2--x--2--2--2----------------------------------------------------------|

End On
e----------------------------------------------------------------------------|
B----------------------------------------------------------------------------|
G----4~----------------------------------------------------------------------|
D----2~----------------------------------------------------------------------|
A----2~----------------------------------------------------------------------|
E----0~----------------------------------------------------------------------|


Key
b = Bend
/ = Slide Up
\ = Slide Down
h = Hammer On
p = Pull Off
x = Mute String
~ = Sustain
PM... = Palm Mute
Добавлено: 09.05.2016
Другие материалы по этой песне:
  • Аккорды и текст

Страница создана 09.05.2016
http://primanota.ru/knuckle-puck/oak-street-chords.htm
Привет, Гость.
Предлагаем пройти революционный курс по гитаре.
Подарок от PrimaNota.Ru, забирай!