PrimaNota.ru - самый крупный в мире бесплатный архив песенных текстов, аккордов, табулатур и нот


Knuckle Puck - No Good - аккорды и текст, таба, видео

Регистрация Запомнить меня
Войти через:  Facebook Google Twitter Vk Yandex Mail.ru

Knuckle Puck - No Good - аккорды и текст, таба, видео

Печатать
Просмотров: 313
No Good
Knuckle Puck
-------------------------------------------------------------------------------
                             No Good - Knuckle Puck
-------------------------------------------------------------------------------
For this tab your guitar needs to be half a step down so - Eb, Ab, Db, Gb, Bb, Eb
If you don't want to tune it down then click the transpose down button once for it to be in the same
key as the original.
I've tabbed the intro in both half a step down and standard tuning.

Intro
Tuning: Half a step down

e|---------------------------------------------------------------------------|
B|---------------------------------------------------------------------------|
G|-----0------0---------0-----0----------0-----0-----------------------------|
D|---0------0------0-4----0h4---4------0-----0-----4h5p4---------------------|
A|-3------2--------------------------3-----2---------------------------------|
E|---------------------------------------------------------------------------|

Intro
Tuning: Standard

e|---------------------------------------------------------------------------|
B|---------------------------------------------------------------------------|
G|---------------------------------------------------------------------------|
D|------4------4-----3-4----3--4--3-------4-----4---3h4p3--------------------|
A|----4------4-----4------4-------------4-----4------------------------------|
E|--7------6--------------------------7-----6--------------------------------|

Chords: Half a step down

Cadd9   G     E7     Dsus4
--3-----3------3-------3----------
--3-----3------3-------3----------
--0-----0------0-------2---------
--2-----0------2-------0----------
--3-----2------2----------------
--------3------0----------------

Where's your respect? 
And didn't your father teach you anything before he left? 

               Cadd9 G  E7   Dsus4
I'm not coming back, 
                      Cadd9 G  E7   Dsus4
oh no, I'm not coming back, 
          Cadd9 G  E7   Dsus4
not coming back
Cadd9         G            E7          Dsus4

Cadd9         G            

Cadd9         G           

Cadd9         G            E7          Dsus4
My mind was a fortress you knew how to rupture 
Cadd9         G            E7          Dsus4     Cadd9         G 
Flanking the trenches and storming my bunker             
           E7          Dsus4                  Cadd9             G 
Day after day, I face the wrath of what I've made 
       E7             Dsus4                   Cadd9            G
But I never thought I could feel this way at 19.

Cadd9    G    

Cadd9 

Cadd9 G               E7          Dsus4       Cadd9     G           
Every word she said, like knives in the back of my head 
E7       Dsus4    Cadd9             G                E7          
Over and over she said I'm just not cut for the weather 
                    Dsus4
So take your wedding bands and your drunken friends 
Cadd9         G                   E7         
'Cause I just can't keep you together 
             Dsus4
I'm no good, you're no better. 
  
Cadd9 (let ring)

Cadd9         G            E7          Dsus4

Cadd9         G            E7          Dsus4

 Cadd9                G
It's people just like you 
               E7          Dsus4
Who made me the pessimist I am 
   Cadd9           G
I'm lower than the dirt 
     E7             Dsus4
With no roots left to find
 Cadd9       G            E7          Dsus4        Cadd9 
It's nice to know I wasn't worth the seven digit let down 
     G              E7         
I was left out in the cold 

Cadd9  
It's people just like you who made me the pessimist I am. 
Cadd9
It's people just like you who made me the pessimist I am.  

 Cadd9 G               E7          Dsus4       Cadd9     G           
Every word she said, like knives in the back of my head 
E7       Dsus4    Cadd9             G                E7          
Over and over she said I'm just not cut for the weather 
                    Dsus4
So take your wedding bands and your drunken friends 
Cadd9         G                   E7         
'Cause I just can't keep you together 
             Dsus4
I'm no good, you're no better.

Cadd9           G            E7          Dsus4
Don't point your unloaded gun at my head ever again. 
Cadd9             G            E7              Dsus4
Don't point your unloaded gun at my head, 'cause I'll pull the trigger.


************************************

| h   hammer-on
| p   pull-off


************************************
Добавлено: 10.08.2014
Другие материалы по этой песне:
  • Аккорды и текст

Страница создана 10.08.2014
http://primanota.ru/knuckle-puck/no-good-chords.htm
Привет, Гость.
Предлагаем пройти революционный курс по гитаре.
Подарок от PrimaNota.Ru, забирай!