PrimaNota.ru - самый крупный в мире бесплатный архив песенных текстов, аккордов, табулатур и нот


Knuckle Puck - Home Alone - таба, видео

Регистрация Запомнить меня
Войти через:  Facebook Google Twitter Vk Yandex Mail.ru

Knuckle Puck - Home Alone - таба, видео

Печатать
Просмотров: 223
-------------------------------------------------------------------------------
                             HOME ALONE - Knuckle Puck
-------------------------------------------------------------------------------
Tabbed by: Ariel Rubio
E-mail: theawesomeguy51@gmail.com

Tuning:C# G# C# F G# C#
Capo: 1 tabs are relative to capo

[Verse]

E|-0-----0-----0-----0-----0---------------------|
B|-0-----0-----0-----0-----0---------------------|
G|-0-----0-----0-----0-----0---------------------|   <-- x4
D|-0--x8-0--x3-0--x5-0--x8-0--x8-----------------|  
A|-x-----x-----x-----0-----x---------------------|
E|-5-----7-----9-----0-----7---------------------|

[Chorus (I am expendable)]

E|-0-----0-----0----------|
B|-0-----0-----0----------|
G|-0-----0-----0----------|  <-- x4
D|-0--x3-0--x3-0--x3------|
A|-x-----x-----x----------|
E|-9-----7-----5----------|

[Outro]

E|---------------------------------------------------------------------------|
B|-------0-----------0-------0--------0-----------0-------0------------------|
G|---0-----0-------0-------0------0-----0-------0-------0--------------------|  <-- xuntil the end
D|-----0-----0----------------------0-----0----------------------------------|
A|---------------------------------------------------------------------------|
E|-5-------------0-------2------5-------------9-------7----------------------|

I'll figure out the lead some other day

************************************

| /   slide up
| \   slide down
| h   hammer-on
| p   pull-off
| ~   vibrato
| +   harmonic
| x   Mute note
| b   Bend
| pb  Pre-bend
| br  Bend release
| pbr Pre-bend release
| brb Bend release bend

************************************
Добавлено: 14.08.2015
Другие материалы по этой песне:
  • Аккорды и текст

Страница создана 14.08.2015
http://primanota.ru/knuckle-puck/home-alone-chords.htm
Привет, Гость.
Предлагаем пройти революционный курс по гитаре.
Подарок от PrimaNota.Ru, забирай!