PrimaNota.ru - самый крупный в мире бесплатный архив песенных текстов, аккордов, табулатур и нот


Knuckle Puck - Gold Rush - таба, видео

Регистрация Запомнить меня
Войти через:  Facebook Google Twitter Vk Yandex Mail.ru

Knuckle Puck - Gold Rush - таба, видео

Печатать
Просмотров: 99
-------------------------------------------------------------------------------
                             Gold Rush - Knuckle Puck
-------------------------------------------------------------------------------
Tabbed by: AdamC1997
E-mail: adam.couts@yahoo.com

Tuning: Half-Step Down (Eb, Ab, Db, Gb, Bb, eb)

Intro
  eb||------------------------------------------------------------------------------------------------||
  Bb||.----------------------------------------------------------------------------------------------.||  x2
  Gb||------------------------------------------------------------------------------------------------|| 
  Db||-----7-------------4-------------7-------------4--4b--------------------------------------------||
  Ab||.---5-----5-------5-----5-------5-----5-------5------5-----------------------------------------.||
  Eb||-3-----------3-5-----------5-7-----------7-5----------------------------------------------------||

Chorus
  eb||------------------------------------------------------------------------------------------------||
  Bb||.----------------------------------------------------------------------------------------------.||  x2
  Gb||-7--7--x-11---11-11-11-11b----11-11-11b----11/14-7--7--x-4---2-2-2-2-2-2-2-2--------------------||
  Db||-x--x--x-x-----x--x--x--x------x--x--x------x--x-x--x--x-x---x-x-x-x-x-x-x-x--------------------||
  Ab||.5--5--x-9-----9--9--9--9b-----9--9--9b-----9/12-5--5--x-2---0-0-0-0-0-0-0-0-------------------.||
  Eb||------------------------------------------------------------------------------------------------||

  eb|-------------------------------------------------------------------------------------------------|
  Bb|-------------------------------------------------------------------------------------------------|
  Gb|-------------------------------------------------------------------------------------------------|
  Db|--5-5-5-5----------------------------------------------------------------------------------------|
  Ab|--5-5-5-5----------------------------------------------------------------------------------------|
  Eb|--3-3-3-3----------------------------------------------------------------------------------------|
       + + + +
Verse
  eb|-------------------------------------------------------------------------------------------------|
  Bb|-------------------------------------------------------------------------------------------------|   
  Gb|-------------------------------------------------------------------------------------------------|
  Db|-----7-------------4-------------7-------------4--4b---------------------------------------------|
  Ab|---5-----5-------5-----5-------5-----5-------5------5--------------------------------------------|
  Eb|-3-----------3-5-----------5-7-----------7-5-----------------------------------------------------|

  eb||------------------------------------------------------------------------------------------------||
  Bb||.----------------------------------------------------------------------------------------------.||
  Gb||-7--7--x-7--7--x-7-7-x-x-9--9--x-9--9--x-9-9-x-x------------------------------------------------||  x2
  Db||-7--7--x-7--7--x-7-7-x-x-7--7--x-7--7--x-7-7-x-x------------------------------------------------||
  Ab||.5--5--x-5--5--x-5-5-x-x-5--5--x-5--5--x-5-5-x-x-----------------------------------------------.||
  Eb||------------------------------------------------------------------------------------------------||

  eb|-------------------------------------------------------------------------------------------------|
  Bb|-------------------------------------------------------------------------------------------------|
  Gb|--/9---7------/9---7-----------------------------------------------------------------------------|
  Db|-----7---7-------7---7---------------------------------------------------------------------------|
  Ab|-----------9-----------9b------------------------------------------------------------------------|
  Eb|-------------------------------------------------------------------------------------------------|

  eb|-------------------------------------------------------------------------------------------------|
  Bb|-------------------------------------------------------------------------------------------------|
  Gb|-7--7--x-7--7--x-7-7-x-x-9--9--x-9--9--x-9-9-x-x-------------------------------------------------|  
  Db|-7--7--x-7--7--x-7-7-x-x-7--7--x-7--7--x-7-7-x-x-------------------------------------------------|
  Ab|-5--5--x-5--5--x-5-5-x-x-5--5--x-5--5--x-5-5-x-x--------------------------------------------------|
  Eb|-------------------------------------------------------------------------------------------------|

  eb|-------------------------------------------------------------------------------------------------|
  Bb|-------------------------------------------------------------------------------------------------|
  Gb|--/9---7------/9---7-----------------------------------------------------------------------------|
  Db|-----7---7-------7---7---------------------------------------------------------------------------|
  Ab|-----------9-----------9b------------------------------------------------------------------------|
  Eb|-------------------------------------------------------------------------------------------------|

  eb|-------------------------------------------------------------------------------------------------|
  Bb|-------------------------------------------------------------------------------------------------|
  Gb|-7-7-x-7-7--7-7-x-x-9-9-x-x-x-x-9-9-x-x-9\-------------------------------------------------------|
  Db|-7-7-x-7-7--7-7-x-x-7-7-x-x-x-x-7-7-x-x-7\-------------------------------------------------------|
  Ab|-5-5-x-5-5--5-5-x-x-5-5-x-x-x-x-5-5-x-x-5\-------------------------------------------------------|
  Eb|-------------------------------------------------------------------------------------------------|

Chorus
  eb||------------------------------------------------------------------------------------------------||
  Bb||.----------------------------------------------------------------------------------------------.||  x2
  Gb||-7--7--x-11---11-11-11-11b----11-11-11b----11/14-7--7--x-4---2-2-2-2-2-2-2-2--------------------||
  Db||-x--x--x-x-----x--x--x--x------x--x--x------x--x-x--x--x-x---x-x-x-x-x-x-x-x--------------------||
  Ab||.5--5--x-9-----9--9--9--9b-----9--9--9b-----9/12-5--5--x-2---0-0-0-0-0-0-0-0-------------------.||
  Eb||------------------------------------------------------------------------------------------------||

  eb|-------------------------------------------------------------------------------------------------|
  Bb|-------------------------------------------------------------------------------------------------|
  Gb|-------------------------------------------------------------------------------------------------|
  Db|--5-5-5-5-5-5------------------------------------------------------------------------------------|
  Ab|--5-5-5-5-5-5------------------------------------------------------------------------------------|
  Eb|--3-3-3-3-3-3------------------------------------------------------------------------------------|
       + + + + + +
Verse
  eb|-------------------------------------------------------------------------------------------------|
  Bb|-------------------------------------------------------------------------------------------------|
  Gb|---7----9----7---7-6--h7p6h7----------------------------------------------------------------------|  
  Db|-7---7---------7---------------------------------------------------------------------------------|  
  Ab|-------------------------------------------------------------------------------------------------|
  Eb|-------------------------------------------------------------------------------------------------|

  eb||------------------------------------------------------------------------------------------------||
  Bb||----10--------------------------10-------------------------------------------------------------.||  x3
  Gb||--7----9----7---7--6--h76h7---7------9----7---7---6-h7/9\7--------------------------------------||
  Db||7-------------7-------------7---------------7---------------------------------------------------||
  Ab||-----------------------------------------------------------------------------------------------.||
  Eb||------------------------------------------------------------------------------------------------||
  
  eb|-------------0-----------------------------------------------------------------------------------||
  Bb|-----------3---3~~~-----------------------------------------------------------------------------.||  x4
  Gb|-7-----------------------------------------------------------------------------------------------||
  Db|---7-4/5\4---------------------------------------------------------------------------------------||
  Ab|------------------------------------------------------------------------------------------------.||
  Eb|-------------------------------------------------------------------------------------------------||


Chorus
  eb||------------------------------------------------------------------------------||----------------||
  Bb||.----------------------------------------------------------------------------.||---------------.||                                                                           x4
  Gb||-7--7--x-11---11-11-11-11b----11-11-11b----11/14-7--7--x-4---2-2-2-2-2-2-2-2--||-----2----------||
  Db||-x--x--x-x-----x--x--x--x------x--x--x------x--x-x--x--x-x---x-x-x-x-x-x-x-x--||-----x----------||
  Ab||.5--5--x-9-----9--9--9--9b-----9--9--9b-----9/12-5--5--x-2---0-0-0-0-0-0-0-0-.||-----0---------.||
  Eb||------------------------------------------------------------------------------||----------------||



************************************

| /   slide up
| \   slide down
| h   hammer-on
| p   pull-off
| ~   vibrato
| +   harmonic
| x   Mute note
| b   Bend
| pb  Pre-bend
| br  Bend release
| pbr Pre-bend release
| brb Bend release bend

************************************
Добавлено: 09.05.2016
Другие материалы по этой песне:
  • Аккорды и текст

Страница создана 09.05.2016
http://primanota.ru/knuckle-puck/gold-rush-chords.htm
Привет, Гость.
Предлагаем пройти революционный курс по гитаре.
Подарок от PrimaNota.Ru, забирай!