PrimaNota.ru - самый крупный в мире бесплатный архив песенных текстов, аккордов, табулатур и нот


Knuckle Puck - Disdain - аккорды и текст, таба, видео

Регистрация Запомнить меня
Войти через:  Facebook Google Twitter Vk Yandex Mail.ru

Knuckle Puck - Disdain - аккорды и текст, таба, видео

Печатать
Просмотров: 101
Disdain
Knuckle Puck
Tabbed By: Fabio BlenderBR


         **Tuning: Half Step Down**
            ( Eb Ab Db Gb Bb Eb )


 - Verse:

          eb|-------------|
          Bb|-10---x-12---|
          Gb|--0---x--0---|
          Db|--x---x--x---|
          Ab|-10---x-10---|    8x
          Eb|-------------|

I've got a lot to talk about.
                                                              C
My disdain for the Pacific threw my name into distant mouths.
                                               G
The heart is heavy when the words are weighing you down.
                C           C  D  C  D
I'm so fucking far down. 



 - Chorus:

C
Crosscheck.
                                      G
Let the turbines shake the overheads.
C 
It took fifteen hours and a missed connection.
                                         G
Overwhelmed and I'm overstepping bounds.

          eb|-------------|
          Bb|-10---x-12---|
          Gb|--0---x--0---|
          Db|--x---x--x---|
          Ab|-10---x-10---|  8x
          Eb|-------------|



 - Verse 2:

                    G
I've had a lot to think about.
                                             C
The questions linger but I'm too scared to speak out.
G                                          C
  Like what could you possibly see in a failure like me?



 - Pre Chorus:   (I decided to put a tab for this part because it's easier to read instead of the chords)

eb|------------------------------------------------------------------------------|
Bb|------------------------------------------------------------------------------|
Gb|------------------------------------------------------------------------------|
Db|-5-5-5-5--5-5-5-5----5-5-4-4--5-5-4-4----5-5-5-5--5-5-5-5---5-5-4-4--5-5-4-4--|
Ab|-2-2-3-3--2-2-3-3----7-7-5-5--7-7-5-5----2-2-3-3--2-2-3-3---7-7-5-5--7-7-5-5--|
Eb|------------------------------------------------------------------------------|

eb|----------------------------------------------|
Bb|----------------------------------------------|
Gb|----------------------------------------------|
Db|-5-5-5-5--5-5-5-5--xxx-5-55-5-5--4-44-xxx-5~--|
Ab|-2-2-3-3--2-2-3-3--xxx-5-55-5-5--5-55-xxx-3~--|
Eb|-------------------xxx-3-33-3-3--2-22-xxx-----|


B/G  C     B/G  C
                   Make no mistake
G/E  D     G/E  D 
                   The winds have changed
B/G  C     B/G  C                                  G/E  D     
         And I'll be catching the resulting tidal waves
G/E  D            B/G  C     B/G  C                              G  G/F#  C
on an empty slate                    To the landlocked states.
                   


 - Chorus:

C
Crosscheck.
                                     G
Let the turbines shake the overheads.
C
It took fifteen hours and a missed connection.
                                        G
Overwhelmed and I'm overstepping bounds.
C
And if you're picking up on the misdirection,
                                                   G
keep the status quo with an ear against the ground.



 - Outro:

eb|------------------------------3~---|
Bb|------------------------------3~---|
Gb|------------------------------0~---|
Db|-5-5-5-4-0-2~----5-5-5-4-0-2--2~---|
Ab|-7-7-7-5-2-3~----7-7-7-5-2-3--3~---|    2x
Eb|-----------------------------------|

And if you let me stay I'll keep out of your way.
I'll be the empty canvas if you be the paint.
And if you let me stay I'll keep out of your way.
My space is yours to occupate.

__________
Hope you liked!

Tabbed by: Fabio BlenderBR
Добавлено: 09.05.2016
Другие материалы по этой песне:
  • Аккорды и текст

Страница создана 08.12.2015
http://primanota.ru/knuckle-puck/disdain-chords.htm
Привет, Гость.
Предлагаем пройти революционный курс по гитаре.
Подарок от PrimaNota.Ru, забирай!