PrimaNota.ru - самый крупный в мире бесплатный архив песенных текстов, аккордов, табулатур и нот


Knuckle Puck - But Why Would You Care - таба, видео

Регистрация Запомнить меня
Войти через:  Facebook Google Twitter Vk Yandex Mail.ru

Knuckle Puck - But Why Would You Care - таба, видео

Печатать
Просмотров: 139
But Why Would You Care by Knuckle Puck
I used this video for reference, go show him some love
https://www.youtube.com/watch?v=jgxxvg2H5XY&list=UU2FMNV0wNF_iWKcNiBNLaoA

Intro
E|---------------|-0-0-0--0-0-0--0-0--0-0-0-0-0--|
B|-----------5---|-5-4-2--5-4-0--9-10-9-7-9-7-12-|
G|-4-4-4-4-4-4-4-|-------------------------------|
D|-2-2-2-2-x-x-x-|-------------------------------|
A|---2-4-2-2-2-2-|-------------------------------|
E|---------------|-------------------------------|

Chorus                                                                         End on
E|--------------------------|--------------------------------|-0-0-0---0-0-0---|-0--|
B|--------------------------|--------------------------------|-9-7-12--9-7-4---|-12-|
G|-6-4-6-9-xxx-11-9-8-9-8-6-|-6-4-6-9-xxx-13-13b-13-11-13-11-|-----------------|----|
D|-x-x-x-x-xxx-x--x-x-x-x-x-|-x-x-x-x-xxx-x--x---x--x--x--x--|-----------------|----|
A|-4-2-4-7-xxx-9--7-6-7-6-4-|-4-2-4-7-xxx-11-11b-11-9--11-9--|-----------------|----|
E|--------------------------|--------------------------------|-----------------|----|

Verse
E|------------------------------|-----------------------|
B|-\7---5--5--\9-9b-7-0h5h7p5p0-|-\7---5--5-4h5p0\7-4h5-|
G|----4---4-4-------------------|----4---4-4------------|
D|------------------------------|-----------------------|
A|------------------------------|-----------------------|
E|------------------------------|-----------------------|

E|--------------------4h5p4---|-----------------------|
B|-\7---5--5--\9-9b-7------h5-|-\7---5--5-4h5p0\7-4h5-|
G|----4---4-4-----------------|----4---4-4------------|
D|----------------------------|-----------------------|
A|----------------------------|-----------------------|
E|----------------------------|-----------------------|

Bridge          x3                  Play this fourth time
E|------------------------------|------------------------------|
B|------------------------------|------------------------------|
G|-------9----------------------|-------9----------------9-----|
D|-6-9-6---9---6-6b7b6--4/2\4---|-6-9-6---9---6-6b7b6\9--------|
A|-----------9------------------|-----------9------------------|
E|------------------------------|------------------------------|


Chorus again

Outro                     Clean
E|--------------------------|--------------------0-------------------------0-----|-0-0-0--0--0--|
B|--------------------------|----------------------------------------------------|-9-7-12-14-12-|
G|-------4------------4-----|-------4--------------4----------4--------------4---|--------------|
D|---2-----2------2-----2---|---2-----2------2-------2----2-----2------2-------2-|--------------|
A|-4---4-----4--4---4-----4-|-0---0-----0--0---0--------0---0-----0--0---0-------|--------------|
E|--------------------------|----------------------------------------------------|--------------|

Добавлено: 05.11.2014
Другие материалы по этой песне:
  • Аккорды и текст

Страница создана 23.08.2014
http://primanota.ru/knuckle-puck/but-why-would-you-care-chords.htm
Привет, Гость.
Предлагаем пройти революционный курс по гитаре.
Подарок от PrimaNota.Ru, забирай!