PrimaNota.ru - самый крупный в мире бесплатный архив песенных текстов, аккордов, табулатур и нот


Know Knothings - Take The World - таба, видео

Регистрация Запомнить меня
Войти через:  Facebook Google Twitter Vk Yandex Mail.ru

Know Knothings - Take The World - таба, видео

Печатать
Просмотров: 63
Take the World
Know Knothings
tabbed by Ryan M. Smith

(standard tuning)  This is all my own work.
this song was recorded in a stadium. and listened to over and over again by 
me.

the only strings you really need are the top three strings. E,A, and D

[ ] palm mute

(intro)
D--------------------------------------------------------------------
A----------------2-----------2-----------3-----------3----------5-5--
E------[0]-[0]-----[0]-[0]----[0]-[0]----[0]-[0]------[0]------------

(Chorus)

D---------------2--------2--------5--5---7--7--7--7-----------2--------2--
A---------------2--------2--------3--3---5--5--5--5---------- 2--------2--
E-------0--0------0--0-----0--0------------------------0--0------0--0-----

A---5--5---7--7--7--7-- times 2
E---3--3---5--5--5--5--


(Bridge)
D--------------------5-5-5-5-5------------------------
A-------9-9-9-9-9--3-3-3-3-3--5-5-5-5-5--7-7-7-7-7--X4
E-------7-7-7-7-7----------------3-3-3-3-3--5-5-5-5-5--

Order:
Intro times four
intro w/ distortion times four.
Chorus with same distorion times two. play two times and then another.
intro clean four times
chorus w/ distorion
Bridge w/ Distortion
Chorus clean
intro clean.

_________________________________________________________________
     
Добавлено: 10.10.2013
Другие материалы по этой песне:
  • Аккорды и текст

Страница создана 10.10.2013
http://primanota.ru/know-knothings/take-the-world-chords.htm
Привет, Гость.
Предлагаем пройти революционный курс по гитаре.
Подарок от PrimaNota.Ru, забирай!