PrimaNota.ru - самый крупный в мире бесплатный архив песенных текстов, аккордов, табулатур и нот


Knotlamp - Last Train Atarashii Asa - таба, видео

Регистрация Запомнить меня
Войти через:  Facebook Google Twitter Vk Yandex Mail.ru

Knotlamp - Last Train Atarashii Asa - таба, видео

Печатать
Просмотров: 107
Уроки эстрадного вокала в Санкт-Петербурге
Last Train ~Atarashii Asa~ - Knotlamp

As a quick note, I wasn't the one who figured this song out; I just tabbed it. I got 
from a video from noraz3 on youtube. Here's the link of him playing it: 
And here's the instructional video: http://www.youtube.com/watch?v=CiNmim35HbQ&feature=related

I'm 99% sure this is right from watching the video, but that last percent bothers me, so if
anyone has any corrections to make, please let me know at yukimaruyoshida@live.com

Intro (0:00-0:18)
e|-----------------------------------------------------------------------------|
B|-----------------------------------------------------------------------------|
G|665533-------665533-------665533--3333-665533-------665533--3333-665533------|
D|------663333-------663333-------66-----------663333-------66-----------663333|
A|-----------------------------------------------------------------------------|
E|-----------------------------------------------------------------------------|

e|-----------|
B|-----------|
G|6655886653-|
D|-----------|
A|-----------|
E|-----------|

Verse (0:19-0:38)
e|--------------------------------------------------------------------------|
B|--------------------------------------------------------------------------|
G|--------------------------------------------------------------------------|
D|6-66666666666666----------------------------------------------------------|
A|4-44444444444444-6-66666666666666-88-8-8/8-66-6-6/6-44-4-4/4-66-6-666-----|
E|-----------------4-44444444444444-66-6-6/6-44-4-4/4-22-2-2/2-44-4-444-----|
    ..............   ..............

e|----------4-------------4--------------------------------------|
B|66-----66-6-4-55-----55-6-4------------------------------------|
G|66-5h6-66---5-66-5h6-66---5------------------------------------|
D|---------------------------------------------------------------|
A|-----------------------------88-8-8/8-66-6-6/6-44-4-4/4-6-66-6-|
E|-----------------------------66-6-6/6-44-4-4/4-22-2-2/2-4-44-4-|

Pre-Chorus (0:39-0:58)
e|-----------------------------------------------------------------|
B|11--11--11--11--13--13--13--13--13--13--14--16--14--14--13--13---|
G|--11--11--11--11--13--13--13--13--13--13--13--13--13--13--13--13-|
D|-----------------------------------------------------------------|
A|-----------------------------------------------------------------|
E|-----------------------------------------------------------------|

e|--------------------------------------------------------------------------------|
B|11--11--11--11--13--13--13--13--13--13--14--16--18--18--16--16--11--11--11--11--|
G|--11--11--11--11--13--13--13--13--13--13--13--13--13--13--13--13--11--11--11--11|
D|--------------------------------------------------------------------------------|
A|--------------------------------------------------------------------------------|
E|--------------------------------------------------------------------------------|

e|-----------------------------------------------|
B|13--13--13--13--13--13--14--16--14--14--13--13-|
G|--13--13--13--13--13--13--13--13--13--13--13---|
D|-----------------------------------------------|
A|-----------------------------------------------|
E|-----------------------------------------------|

e|------------------------------|
B|------------------------------|
G|------------------------------|
D|------------------------------|
A|4-44444444444444-6-6666666666-|
E|2-22222222222222-4-4444444444-|
    ..............   ..........  

Chorus (0:59-1:19)
e|----------------------------------------------------------------------------|
B|------------------------------------------------------------------------9-11|
G|----3--------3--------3--------353------3--------353------3---------6-8-x--x|
D|--36-343---36-343---36-343---36---63--36-343-- 36---63--36-343--66--x-x-6--8|
A|44------644------644------644-------44------644-------44------6-44--4-6-----|
E|----------------------------------------------------------------------------|

Verse 2 (1:20-1:39)
e|--------------------------------------------------------------------------|
B|--------------------------------------------------------------------------|
G|--------------------------------------------------------------------------|
D|6-66666666666666----------------------------------------------------------|
A|4-44444444444444-6-66666666666666-88-8-8/8-66-6-6/6-44-4-4/4-66-6-666-----|
E|-----------------4-44444444444444-66-6-6/6-44-4-4/4-22-2-2/2-44-4-444-----|
    ..............   ..............

e|--------------------------------------------------------------------|
B|-------------4---------------4--------------------------------------|
G|---66-5h6-6-6-656--66-5h6-6-6-65~-----------------------------------|
D|-66--------------66-------------------------------------------------|
A|----------------------------------88-8-8/8-66-6-6/6-44-4-4/4-66-6-6-|
E|----------------------------------66-6-6/6-44-4-4/4-22-2-2/2-44-4-4-|
   ..              ..

Pre-Chorus (1:40-1:59)
e|-----------------------------------------------------------------|
B|11--11--11--11--13--13--13--13--13--13--14--16--14--14--13--13---|
G|--11--11--11--11--13--13--13--13--13--13--13--13--13--13--13--13-|
D|-----------------------------------------------------------------|
A|-----------------------------------------------------------------|
E|-----------------------------------------------------------------|

e|--------------------------------------------------------------------------------|
B|11--11--11--11--13--13--13--13--13--13--14--16--18--18--16--16--11--11--11--11--|
G|--11--11--11--11--13--13--13--13--13--13--13--13--13--13--13--13--11--11--11--11|
D|--------------------------------------------------------------------------------|
A|--------------------------------------------------------------------------------|
E|--------------------------------------------------------------------------------|

e|-----------------------------------------------|
B|13--13--13--13--13--13--14--16--14--14--13--13-|
G|--13--13--13--13--13--13--13--13--13--13--13---|
D|-----------------------------------------------|
A|-----------------------------------------------|
E|-----------------------------------------------|

e|------------------------------|
B|------------------------------|
G|------------------------------|
D|------------------------------|
A|4-44444444444444-6-6666666666-|
E|2-22222222222222-4-4444444444-|
    ..............   ..........  

Chorus (2:00-2:18)
e|-------------------------------------------------------------------|
B|-------------------------------------------------------------------|
G|----3--------3--------3--------353------3--------353------3--------|
D|--36-343---36-343---36-343---36---63--36-343---36---63--36-343--6~-|
A|44------644------644------644-------44------644-------44------6-4~-|
E|-------------------------------------------------------------------|

Interlude (2:19-2:42)
e|9-11-13-11-----9-9-11-13-14-13-11-9-11-13-11----9-9-11-13--|
B|-9--9--9--9-13----9--9--9--9-------9--9--9--9-13---9--9----|
G|-----------------------------------------------------------|
D|-----------------------------------------------------------|
A|-----------------------------------------------------------|
E|-----------------------------------------------------------|

e|-----------------------------11---11---11--11---11--|
B|------------------------------9----9----9---9----9--|
G|------------------------------8-88-8-88-8-8-8-88-8--|
D|----------------------------------------------------|
A|8-6-4~-6~-4~-6-6666666666666------------------------|
E|6-4-2~-4~-2~-4-4444444444444------------------------|
                 .............

Chorus (2:43-3:25)
e|---------------------------------------------------------------------------|
B|---------------------------------------------------------------------------|
G|----3--------3--------3--------353------3--------353------3----------------|
D|--36-343---36-343---36-343---36---63--36-343---36---63--36-343--66666666---|
A|44------644------644------644-------44------644-------44------6-44444444---|
E|---------------------------------------------------------------------------|

e|---------------------------------------------------------------------------------|
B|---------------------------------------------------11/11/11-11-11/11/11-999-9-999|
G|666-6-666-888-8-888-10/10/10-10-10/10/10-888-8-888--x--x--x--x--x--x--x-xxx-x-xxx|
D|xxx-x-xxx-xxx-x-xxx--x--x--x--x--x--x--x-xxx-x-xxx--8--8--8--8--8--8--8-666-6-666|
A|444-4-444-666-6-666--8--8--8--8--8--8--8-666-6-666-------------------------------|
E|---------------------------------------------------------------------------------|

e|----------------------------------------------------------------|
B|11/11/11-11-11/11/11-13/13/13-13-13/13/13-14/14/14-14-14/14/14--|
G|-x--x--x--x--x--x--x--x--x--x--x--x--x--x--x--x--x--x--x--x--x--|
D|-8--8--8--8--8--8--8-10-10-10-10-10-10-10-11-11-11-11-11-11-11--|
A|----------------------------------------------------------------|
E|----------------------------------------------------------------|

e|---------------------------------------------------------------|
B|------------------14-13-11-9-----------------------------------|
G|8-88-10-11-10~-13--x--x--x-x-11-10-----------------------------|
D|------------------11-10--8-6--x--x-6-6-66-88-8888--------------|
A|------------------------------9--8-4-4-44-66-6666-4-4-46-6-6-6-|
E|--------------------------------------------------2-2-24-4-4-4-|

Outro (2:26-4:05)
e|-----------------------------------------------------------------------------|
B|-----------------------------------------------------------------------------|
G|665533-------665533--3333-665533-------665533--3333-665533-------665533--3333|
D|------663333-------66-----------663333-------66-----------663333-------66----|
A|-----------------------------------------------------------------------------|
E|-----------------------------------------------------------------------------|

e|---------------------------|
B|---------------------------|
G|665533------6655886653-6~--|
D|------663333-----------x~--|
A|-----------------------4~--|
E|---------------------------|

Knotlamp's site: http://www.knotlamp.com/
Добавлено: 12.07.2012
Другие материалы по этой песне:
  • Аккорды и текст

Страница создана 12.07.2012
http://primanota.ru/knotlamp/last-train-atarashii-asa-chords.htm
Привет, Гость.
Предлагаем пройти революционный курс по гитаре.
Подарок от PrimaNota.Ru, забирай!