PrimaNota.ru - самый крупный в мире бесплатный архив песенных текстов, аккордов, табулатур и нот


Knorkator - Kurz Und Klein - таба, видео

Регистрация Запомнить меня
Войти через:  Facebook Google Twitter Vk Yandex Mail.ru

Knorkator - Kurz Und Klein - таба, видео

Печатать
Просмотров: 193
Уроки эстрадного вокала в Санкт-Петербурге
E-tuning

 Intro

----------------------------------------------------|
----------------------------------------------------|
----------------------------------------------------|
----------------------------------------------------|   2x
2---3--2--|(3x) ---3-3-3-3-2-2-2-2------------------|
0---1--0--|(3x)--------------------4-4-4-4-3-3-3-3--|

Refrain

-------------------------------------------------------|
-------------------------------------------------------|
-------------------------------------------------------|
-------------------------------------------------------|   2x
2---3--2-(2)-(2)-|(3x)-3-3-3-3-2-2-2-2-----------------|
0---1--0-(0)-(0)-|(3x)----------------4-4-4-4-3-3-3-3--|

Verse

--------------------------------------------|
--------------------------------------------|
--------------------------------------------|
----4-----2----5--6--5----4-----2----5--6--3|
----2-----0----3--4--3----2-----0----3--4--1|
0-0---0-0---0-0-------0-0---0-0---0-0-------|
(2nd part 3x)

Play all 0 palm muted in the verse!!

MfG Feridian
Добавлено: 15.07.2012
Другие материалы по этой песне:
  • Аккорды и текст

Страница создана 15.07.2012
http://primanota.ru/knorkator/kurz-und-klein-chords.htm
Привет, Гость.
Предлагаем пройти революционный курс по гитаре.
Подарок от PrimaNota.Ru, забирай!