PrimaNota.ru - самый крупный в мире бесплатный архив песенных текстов, аккордов, табулатур и нот


Knights Of The Abyss - Welcome To Camelot - таба, видео

Регистрация Запомнить меня
Войти через:  Facebook Google Twitter Vk Yandex Mail.ru

Knights Of The Abyss - Welcome To Camelot - таба, видео

Печатать
Просмотров: 95
Knights of the Abyss - Welcome to Camelot

Tuning: Drop B, ignore the fact that the tab shows standard. It's drop B.

Tabbed by: Skip Anderson

This is just the left guitar, I'm too lazy to do both guitars. Some fills at the 
end of riffs aren't perfect, but it all sounds decent.

()= Pinch harmonic 
b= Bend

Intro
e|------------------------------|----------------------------------|
B|------------------------------|----------------------------------|
G|------------------------------|----------------------------------|
D|---0------5---8---7-----4--7--|---0------1---5---4------1--4-----|
A|---0------5---8---7-----4--7--|---0------1---5---4------1--4-----|
E|---0------5---8---7-----4--7--|---0------1---5---4------1--4-----|


e|------------------------------|---------------------------------|
B|------------------------------|---------------------------------|
G|------------------------------|---------------------------------|
D|---0------5---8---7-----4--7--|---0------1---5---4--------4-----|
A|---0------5---8---7-----4--7--|---0------1---5---4--------4-----|
E|---0------5---8---7-----4--7--|---0------1---5---4--------4-----|

Riff A x2
e|---------------------------------------------------------------------------------------|
B|---------------------------------------------------------------------------------------|
G|---------------------------------------------------------------------------------------|
D|-----------------------------------------------------------5h8p5p0------------5h8p5p0--|
A|-000-000-000-000-000-000-000-----000-000-000-000-------5h8----------------5h8----------|
E|-000-000-000-000-000-000-000--5--000-000-000-000---5h8----------------5h8--------------|


e|-----------------------------------------------------------------------|
B|-----------------------------------------------------------------------|
G|-----------------------------------------------------------------------|
D|-----------------------------------------------------------------------|
A|-000-000-000-000-000-000-000-----000-000-000-000-----------------------|
E|-000-000-000-000-000-000-000--5--000-000-000-000---7-4-1-4-12-8-10-7---|

Fill
e|---------------------------------------------------------------|
B|---------------------------------------------------------------|
G|---------------------------------------------------------------|
D|---------------------------------------------------------------|
A|---------------------------------------------------------------|
E|---0-0--000-000--0-0--0---000-000---0-0---0--000--000--0-------|

Breakdown
e|-------------------------------------------------------------------------------|
B|-------------------------------------------------------------------------------|
G|-------------------------------------------------------------------------------|
D|-------------------------------------------------------------------------------|
A|-------------------------------------------------------8888888877774444--------|
E|---0-0--000-000--0-0----000-000---0-0---0--000--000----------------------------|

e|------------------------------------------------------------------------------|
B|------------------------------------------------------------------------------|
G|------------------------------------------------------------------------------|
D|------------------------------------------------------------------------------|
A|-------------------------------------------------------555555554488557744-----|
E|---0-0--000-000--0-0--0--000-000----0-0--0--000-000---------------------------|

e|-------------------------------------------------------------------------------|
B|-------------------------------------------------------------------------------|
G|-------------------------------------------------------------------------------|
D|-------------------------------------------------------------------------------|
A|-------------------------------------------------------8888888877774444--------|
E|---0-0--000-000--0-0--------------0-0---0--000--000----------------------------|

e|--------------------------------------------------------------------|
B|--------------------------------------------------------------------|
G|--------------------------------------------------------------------|
D|--------------------------------------------------------------------|
A|------------------------------------------------4488557744----------|
E|---0-0--000-000--0-0------0-0--000-000--44444444--------------------|

Riff B x2
e|---------------------------------------------------------------|
B|---------------------------------------------------------------|
G|---------------------------------------------------------------|
D|---------------------------------------------------------------|
A|-----5-4--8-7--11-10\-----55558888----55558877774444-----------|
E|---00-0-00-0-00--0----0000--------0000-------------------------|

e|------------------------------------------------------------------------------------|
B|------------------------------------------------------------------------------------|
G|------------------------------------------------------------------------------------|
D|------------------------------------------------------------------------------------|
A|-----5-4--8-7--11-10\-----8-5-7-4-12-8-10-7---8-5-7-4-12-8-15-12--------------------|
E|---00-0-00-0-00--0------------------------------------------------------------------|


Breakdown 2
e|---------------------------------------------------------------|
B|---------------------------------------------------------------|
G|---------------------------------------------------------------|
D|---------------------------------------------------------------|
A|---------------------------------------------------------------|
E|---0-000-0-0-0---0-000-0-0-0---0-000-0-0-0------(3)B-----------|

e|---------------------------------------------------------------|
B|---------------------------------------------------------------|
G|---------------------------------------------------------------|
D|---------------------------------------------------------------|
A|---------------------------------------------------------------|
E|---0-000-0-0-0---0-000-0-00-00---0-000-0-0-0---5"-1"-4"-0"-----|

e|---------------------------------------------------------------|
B|---------------------------------------------------------------|
G|---------------------------------------------------------------|
D|---------------------------------------------------------------|
A|-----------------------------------------------5-4-5-8-7-5-4---|
E|---0-000-0-0-0---0-000-0-00-00---0-000-0-0-0-------------------|

e|---------------------------------------------------------------|
B|---------------------------------------------------------------|
G|---------------------------------------------------------------|
D|---------------------------------------------------------------|
A|---------------------------------------------------------------|
E|---0-000-0-0-0---0-000-0-00-00---0-000-0-0-0--5555555544441111-|

e|---------------------------------------------------------------|
B|---------------------------------------------------------------|
G|---------------------------------------------------------------|
D|---------------------------------------------------------------|
A|-----------------------------------------------8-7-5-7-8-4-(5)-|
E|---0-000-0-0-0---0-000-0-00-00---0-000-0-0-0-------------------|


Riff C
e|--------------------------------------------------------------------|
B|--------------------------------------------------------------------|
G|--------------------------------------------------------------------|
D|--------------------------------------------------------------------|
A|--8p5p0h5h7p5p0h5-8p5p0h5h7p5p0h5-8p5p0h5h7p5p0h5-8p5p0h5h7p5p0h5---|
E|--------------------------------------------------------------------|

e|--------------------------------------------------------------------|
B|--------------------------------------------------------------------|
G|--------------------------------------------------------------------|
D|--------------------------------------------------------------------|
A|--7p4p0h4h5p4p0h4-7p4p0h4h5p4p0h4-7p4p0h4h5p4p0h4-7p4p0h4h5p4p0h4---|
E|--------------------------------------------------------------------|

e|--------------------------------------------------------------------|
B|--------------------------------------------------------------------|
G|--------------------------------------------------------------------|
D|--------------------------------------------------------------------|
A|--8p5p0h5h7p5p0h5-8p5p0h5h7p5p0h5-8p5p0h5h7p5p0h5-8p5p0h5h7p5p0h5---|
E|--------------------------------------------------------------------|

e|--------------------------------------------------------------------|
B|--------------------------------------------------------------------|
G|--------------------------------------------------------------------|
D|--------------------------------------------------------------------|
A|--7p4p0h4h5p4p0h4-7p4p0h4h5p4p0h4-7p4p0h4h5p4p0h4-7p4---------------|
E|--------------------------------------------------------------------|

Riff C2
e|---------------------------------------------------------------|
B|---------------------------------------------------------------|
G|---------------------------------------------------------------|
D|---------------------------------------------------------------| x2
A|-----5-4-----1-4---------------5-4-----1-5-4-0-4-1-0--(5)------|
E|-000-8-7-000-4-7--000-000-000--8-7-000-1-5-4-0-4-1-0-----------|

Play riff C and C2 together x2

Play riff C2 slower, tremolo picking the chords

Breakdown 3
e|---------------------------------------------------------------|
B|---------------------------------------------------------------|
G|---------------------------------------------------------------|
D|---------------------------------------------------------------|
A|---------------------------------------------------------------|
E|--000---000----000-000-000------000---000----000-000-000-------|

e|---------------------------------------------------------------|
B|---------------------------------------------------------------|
G|---------------------------------------------------------------|
D|---------------------------------------------------------------|
A|-------------------------------------------------------(5)h(8)-|
E|--000---000----000-000-000------000-----1-5-4-0-4-1-0----------|

Riff D
e|---------------------------------------------------------------|
B|---------------------------------------------------------------|
G|---------------------------------------------------------------|
D|---------------------------------------------------------------|
A|----5-4-5-7-8-7-5----5-7-8----4-5-7----------------------------|
E|--00-0-0-0-0-0-0---88-8-8---77-7-7-----------------------------|

e|---------------------------------------------------------------|
B|---------------------------------------------------------------|
G|---------------------------------------------------------------|
D|---------------------------------------------------------------|
A|----5-4-5-7-8-7-5--------8-12-8-----7-10-7-----5-8-5-----(5)---|
E|--00-0-0-0-0-0-0-----8-8--------8-8--------5-5-------5-5-------|

e|---------------------------------------------------------------|
B|---------------------------------------------------------------|
G|---------------------------------------------------------------|
D|---------------------------------------------------------------|
A|----5-4-5-7-8-7-5----5-7-8----4-5-7----------------------------|
E|--00-0-0-0-0-0-0---88-8-8---77-7-7-----------------------------|

e|---------------------------------------------------------------|
B|---------------------------------------------------------------|
G|---------------------------------------------------------------|
D|---------------------------------------------------------------|
A|----5-4-5-7-8-7-5--------8-12-8-----7-10-7-----5-8-5-----(5)---|
E|--00-0-0-0-0-0-0-----8-8--------8-8--------5-5-------5-5-------|


Riff E
e|-------------------------------------------------------------------------|
B|-------------------------------------------------------------------------|
G|-------------------------------------------------------------------------|
D|-------------------------------------------------------------------------|
A|-----------5-4-5-7---------7-5-7-8---------------8-7-8-10--12"-10"-4"-5"-|
E|---000-000---------888-888---------101010-101010-------------------------|

e|---------------------------------------------------------------------------|
B|---------------------------------------------------------------------------|
G|---------------------------------------------------------------------------|
D|---------------------------------------------------------------------------|
A|-----------5-4-5-7---------7-5-7-8---------------8-7-8-10--12"-10"-13"-12"-|
E|---000-000---------888-888---------101010-101010---------------------------|

e|-------------------------------------------------------------------------|
B|-------------------------------------------------------------------------|
G|-------------------------------------------------------------------------|
D|-------------------------------------------------------------------------|
A|-----------5-4-5-7---------7-5-7-8---------------8-7-8-10--12"-10"-4"-5"-|
E|---000-000---------888-888---------101010-101010-------------------------|

e|---------------------------------------------------------------------------|
B|---------------------------------------------------------------------------|
G|---------------------------------------------------------------------------|
D|---------------------------------------------------------------------------|
A|-----------5-4-5-7---------7-5-7-8---------------8-7-8-10--12"-10"-13"-12"-|
E|---000-000---------888-888---------101010-101010---------------------------|


Outro
e|---------------------------------------------------------------|
B|---------------------------------------------------------------|
G|---------------------------------------------------------------|
D|---------------------------------------------------------------|
A|----5-4-5-7-8-7-5----5-7-8----4-5-7----------------------------|
E|-000-0-0-0-0-0-0--888-8-8--777-7-7-----------------------------|

e|---------------------------------------------------------------|
B|---------------------------------------------------------------|
G|---------------------------------------------------------------|
D|-------------7-5---5-------------------------------------------|
A|----5-4-5--------8---8-7-8-7-5-7-5-4-----5"-7"-8"----4"-5"-7"--|
E|--00-0-0-0----------------------------8"----------7"-----------|

e|---------------------------------------------------------------|
B|---------------------------------------------------------------|
G|---------------------------------------------------------------|
D|---------------------------------------------------------------|
A|--------777755557777888877755557777------5"-7"-8"----4"-5"-7"--|
E|---0000-------------------------------8"----------7"-----------|

e|-----------------------------------------------------------------------|
B|-----------------------------------------------------------------------|
G|-----------------------------------------------------------------------|
D|---------------------7-5---5-------------------------------------------|
A|-------555544445555------8---8-7-8-7-5-7-5-4-----5"-7"-8"----4"-5"-7"--|
E|--0000----------------------------------------8"----------7"-----------|

e|-------------|
B|-------------|
G|-------------|
D|--0----------|
A|--0----------|
E|--0----------|
Добавлено: 28.05.2012
Вам также может быть интересно:
Другие материалы по этой песне:
  • Аккорды и текст

Страница создана 28.05.2012
http://primanota.ru/knights-of-the-abyss/welcome-to-camelot-chords.htm
Привет, Гость.
Предлагаем пройти революционный курс по гитаре.
Подарок от PrimaNota.Ru, забирай!