PrimaNota.ru - самый крупный в мире бесплатный архив песенных текстов, аккордов, табулатур и нот


Knights Of The Abyss - Dragon Pie - таба, бас-таба, видео

Регистрация Запомнить меня
Войти через:  Facebook Google Twitter Vk Yandex Mail.ru

Knights Of The Abyss - Dragon Pie - таба, бас-таба, видео

Печатать
Просмотров: 139
Dragon Pie Tab by Knights Of The Abyss

Well,this is my first tab,hope it helps you people:]

h - HAMMER ON
p - PULL OFF
/ = SLIDE UP
\ = SLIDE DOWN
* - PALM MUTE
" - TREMELO

I just tabbed it with any tunning,if you think it's wrong,put it in any tunning you 
think Drop C will work)

Tremolo pick each note about 4 times

As you can clearly see,it's different then the other tabs(if you look at all of the 
in this tab you'll see a lot a corrected or different.)

E|-------------------------------------------------|
A|-------------------------------------------------|
D|-------------------------------------------------|
G|-------------------------------------------------| About 4 Times.
B|-"5-"8-"4-"7-"5-"8-"7-"8-"1-"4-"3-"6-"7-"6-"4-"3-|
E|-------------------------------------------------|
                            \____________________/
                                       |
                      This chunk can also be done like this↓

                           E|------------------------|
                           A|------------------------|
                           D|------------------------|
                           G|------------------------|
                           B|"1-"5-"4-"7-"8-"7-"5-"4-|
                           E|------------------------|

The break down at about 0:18,I'm not really sure about it,but it sounds good to me.

E|---------------------------------------------------|
A|---------------------------------------------------|
D|---------------------------------------------------|
G|--------7---------------------7-8888777755557777---|
B|-5h7-7p5-5-0000-00000000-5h7-7p5-5-----------------|
E|-----------0000-00000000---------------------------|

E|----------------------------------------------------------|
A|----------------------------------------------------------|
D|----------------------------------------------------------|
G|--------7-------------------------------------------------|
B|-5h7-7p5-5-0000-00000000-11114444333366667777666644443333-|
E|-----------0000-00000000----------------------------------|

Part at about 0:37,Right after that Break Down.

A bunch of hammer ons.

E|--------------------------------------------|
A|--------------------------------------------|
G|-------------------------------------6h7----|
D|----------------------------------------7h8-|
B|-5h8--4h7----5h8-4h7--5h8--4h7----5h8-------|
E|----00---0000-------00---00---0000----------|

E|--------------------------------------------|
A|--------------------------------------------|
G|-----------------------------------------6h7|
D|--------------------------------------7h8---|
B|-5h8--4h7----5h8-4h7--5h8--4h7----5h8-------|
E|----00---0000-------00---00---0000----------|

The break down at 0:47,It's kinda the same thing.

E|--------------------------------------------------------------|
A|--------------------------------------------------------------|
G|--------------------------------------------------------6h7---|
D|-----------------------------------------------------------7h8|
B|-5h8-000-4h7-000-000-5h8-4h7-000-5h8-000-4h7-000-000-5h8------|
E|-----000-----000-000---------000-----000-----000-000----------|


E|--------------------------------------------------------------|
A|--------------------------------------------------------------|
G|-----------------------------------------------------------6h7|
D|--------------------------------------------------------7h8---|
B|-5h8-000-4h7-000-000-5h8-4h7-000-5h8-000-4h7-000-000-5h8------|
E|-----000-----000-000---------000-----000-----000-000----------|

After that,it goes into that little whispering thing.

Then it goes into this break down at about 1:02

E|------------------------------------------------------------------|
A|------------------------------------------------------------------|
G|------------------------------------------------------------6h7---|
D|---------------------------------------------------------------7h8|
B|------000-----000-000----------000------000-----000-000-----------|
E|-7h10-000-6h9-000-000-7h10-6h9-000-7h10-000-6h9-000-000-7h10------|

E|------------------------------------------------------------------|
A|------------------------------------------------------------------|
G|---------------------------------------------------------------6h7|
D|------------------------------------------------------------7h8---|
B|------000-----000-000----------000------000-----000-000-----------|
E|-7h10-000-6h9-000-000-7h10-6h9-000-7h10-000-6h9-000-000-7h10------|

Repeat that another time,then at about 1:31,you do this.

I'm not sure about this part

E|------------------------------------------|
A|------------------------------------------|
G|------------------------------------------|
D|------------------------------------------| x4
B|-5--5--5-5-5-7-7-8--8--8h10p8-7--7--7h8p7-|
E|--00-00-0-0-0-0-0-00-00--------00-00------|

Then when that part is over,you go into this Riff that starts at about 1:50.

Tremelo pick each note a couple of times.

Riff 1.
|-------------------------------------------------|
|-------------------------------------------------|
|-------------------------------------------------|
|-------------------------------------------------|
|-"5-"5-"7-"8-"8-"7-"8-"10-"8-"10-"12-"13-"12-"10-|
|-------------------------------------------------|
This is still part of the Riff↓
|---------------------|
|---------------------|
|---------------------|
|-"15-"20-"13-"10-"12-|
|---------------------|
|---------------------|

Riff 2
|-------------------------------------------------|
|-------------------------------------------------|
|-------------------------------------------------|
|-"5-"5-"7-"8-"8-"7-"8-"10-"8-"10-"12-"13-"12-"10-|
|-------------------------------------------------|
|-------------------------------------------------|
This is still part of the Riff↓
|---------------------|
|---------------------|
|-"15-"18-"13-"11-"12-|
|---------------------|
|---------------------|

If Riff 2 doesn't sound right,then just keep doing Riff 1.

Do this at 2:09.

Fill
|---------------|
|---------------|
|---------------|
|---------------|
|-0-0-------0-0-|
|-0-0-00-00-0-0-|

I might tab the rest later.
Добавлено: 22.04.2012
Другие материалы по этой песне:

Страница создана 21.03.2012
http://primanota.ru/knights-of-the-abyss/dragon-pie-chords.htm
Привет, Гость.
Предлагаем пройти революционный курс по гитаре.
Подарок от PrimaNota.Ru, забирай!