PrimaNota.ru - самый крупный в мире бесплатный архив песенных текстов, аккордов, табулатур и нот


Knights Of The Abyss - Banished - таба, видео

Регистрация Запомнить меня
Войти через:  Facebook Google Twitter Vk Yandex Mail.ru

Knights Of The Abyss - Banished - таба, видео

Печатать
Просмотров: 74
Banished
Knights Of The Abyss
Shades (2008)

Tabbed by: Sebastian Martin
Email: bm142857@verizon.net
email if you want me to tab out anything.

Tuning: Drop A#


3/4 timing


||Gtr.1                                                                          |         
||---------------------------|-------------------------|-------------------------|
||-o-------------------------|-------------------------|-------------------------|
||---------------------------|-------------------------|-------------------------|
||---------------------------|-------------------------|-------------------------|
||-o-5-5-5-5-5-5-------------|-5-5-5-5-5-5-3-3-3-3-3-3-|-5-5-5-5-5-5-------------|
||---------------000-000-000-|-------------------------|-------------000-000-000-|
||               ... ... ...                                         ... ... ... |
||Gtr.2                                                                          |
||---------------------------|-------------------------|-------------------------|
||-o-------------------------|-------------------------|-------------------------|
||---------------------------|-------------------------|-------------------------|
||---3-3-3-3-3-3-------------|-3-3-3-3-3-3-2-2-2-2-2-2-|-3-3-3-3-3-3-------------|
||-o-------------------------|-------------------------|-------------------------|
||---------------000-000-000-|-------------------------|-------------000-000-000-|
                 ... ... ...                                         ... ... ...

|-------------------------|-------------------------|-------------------------|
|-------------------------|-------------------------|-------------------------|
|-------------------------|-------------------------|-------------------------|
|-------------------------|-------------------------|-------------------------|
|-5-5-5-5-5-5-7-7-7-7-7-7-|-------------------------|-------------------------|
|-------------------------|-5-5-5-5-5-5-5-5-5-5-5-5-|-3-3-3-3-3-3-3-3-3-3-3-3-|
|                                                                             |
|-------------------------|-------------------------|-------------------------|
|-------------------------|-------------------------|-------------------------|
|-------------------------|-------------------------|-------------------------|
|-3-3-3-3-3-3-5-5-5-5-5-5-|-------------------------|-------------------------|
|-------------------------|-7-7-7-7-7-7-7-7-7-7-7-7-|-5-5-5-5-5-5-5-5-5-5-5-5-|
|-------------------------|-------------------------|-------------------------|


|-------------------------|-------------------------|-------------------------|
|-------------------------|-------------------------|-------------------------|
|-------------------------|-------------------------|-------------------------|
|-------------------------|-------------------------|-------------------------|
|-5-5-5-5-5-5-------------|-5-5-5-5-5-5-3-3-3-3-3-3-|-5-5-5-5-5-5-------------|
|-------------000-000-000-|-------------------------|-------------000-000-000-|
|             ... ... ...                                         ... ... ... |
|-------------------------|-------------------------|-------------------------|
|-------------------------|-------------------------|-------------------------|
|-------------------------|-------------------------|-------------------------|
|-3-3-3-3-3-3-------------|-3-3-3-3-3-3-2-2-2-2-2-2-|-3-3-3-3-3-3-------------|
|-------------------------|-------------------------|-------------------------|
|-------------000-000-000-|-------------------------|-------------000-000-000-|
              ... ... ...                                         ... ... ...

|-------------------------|-------------------------|---------------------------||
|-------------------------|-------------------------|-------------------------o-||
|-------------------------|-------------------------|---------------------------||
|-------------------------|-------------------------|-7-7-7-7-7-7-7-7-7-7-7-7---||
|-5-5-5-5-5-5-7-7-7-7-7-7-|-------------------------|-------------------------o-||
|-------------------------|-5-5-5-5-5-5-5-5-5-5-5-5-|---------------------------||
|                                                                               ||
|-------------------------|-------------------------|---------------------------||
|-------------------------|-------------------------|-------------------------o-||
|-------------------------|-------------------------|---------------------------||
|-3-3-3-3-3-3-5-5-5-5-5-5-|-------------------------|---------------------------||
|-------------------------|-7-7-7-7-7-7-7-7-7-7-7-7-|-------------------------o-||
|-------------------------|-------------------------|-3-3-3-3-3-3-3-3-3-3-3-3---||


Добавлено: 05.03.2012
Другие материалы по этой песне:

Страница создана 05.03.2012
http://primanota.ru/knights-of-the-abyss/banished-chords.htm
Привет, Гость.
Предлагаем пройти революционный курс по гитаре.
Подарок от PrimaNota.Ru, забирай!