PrimaNota.ru - самый крупный в мире бесплатный архив песенных текстов, аккордов, табулатур и нот


Knights Of The Abyss - 747 - таба, видео

Регистрация Запомнить меня
Войти через:  Facebook Google Twitter Vk Yandex Mail.ru

Knights Of The Abyss - 747 - таба, видео

Печатать
Просмотров: 125
this song is in drop b alot of people thing its drop c but no trust me okB
the strings are B F# B E G# C#

------------)
------------)
------------)
------------)
------------)
-6-6h9-5-000)
         xxx

------------)
------------)
------------)
------------)
------------)
-6-6h9-5-(x2)


-------------------------)
-------------------------)
-------------------------)
-------------------------)
----6h9---6-5------------)
-6h9---6h9---------------)


C#----------------------------)
G#----------------------------)
E-----------------------------)
B---------6h9-----------------)  (x4)
F#------5h8-----------5h8-----)
B(00-6h9-------000-6h9--------)
  xx           xxx

submited by britt shrum ill have more songs soon enough this is my first tab so be easy on me
Добавлено: 18.03.2012
Другие материалы по этой песне:
  • Аккорды и текст

Страница создана 18.03.2012
http://primanota.ru/knights-of-the-abyss/747-chords.htm
Привет, Гость.
Предлагаем пройти революционный курс по гитаре.
Подарок от PrimaNota.Ru, забирай!