PrimaNota.ru - самый крупный в мире бесплатный архив песенных текстов, аккордов, табулатур и нот


Knife Party - Give It Up - бас-таба, видео

Регистрация Запомнить меня
Войти через:  Facebook Google Twitter Vk Yandex Mail.ru

Knife Party - Give It Up - бас-таба, видео

Печатать
Просмотров: 112
Авторы: Clifford Smith, Rob Swire, Gareth McGrillen

-------------------------------------------------------------------------------
                             GIVE IT UP - Knife Party
-------------------------------------------------------------------------------
Tabbed by: 
My first tab, so any corrections/comments are absolutely welcome

Tuning: Standard

Intro: come in at 0:11

G|---------------------------------------------------------------------------|
D|---------------------------------------------------------------------------|
A|---------------------------------------------------------------------------|
E|--5~~~--3~~~--0~~~--1~~~-5~~~--3~~~--0~~~-1--------------------------------|
B|---------------------------------------------------------------------------|
   Very Quiet

G|---------------------------------------------------------------------------|
D|---------------------------------------------------------------------------|
A|---------------------------------------------------------------------------|
E|--555-53-3-3--31-1-1--13-3-3-3--555-53-3-3--31-1-1--10-0-0-----------------|
B|---------------------------------------------------------------------------|  X2
   Louder

G|---------------------------------------------------------------------------|
D|---------------------------------------------------------------------------|
A|-0000000000000000000000000000000000000/12121212121212121212121212----------|
E|---------------------------------------------------------------------------|
B|---------------------------------------------------------------------------|


Chorus:

G|---------------------------------------------------------------------------|
D|---------------------------------------------------------------------------|
A|------------------3-5--------5-3-------------------------------------------|
E|-12/3--3-5-545535-----3-5-43-----5-12/3-3-5-545535-3-3h4h5-1--12-----------|
B|---------------------------------------------------------------------------|

G|----------------------------------------------------|----------------------| X2
D|----------------------------------------------------|----------------------|
A|------------------3-5--------5-3--------------------|12-1212-11-11-1010----| <- 11's and 10's
E|-12/3--3-5-545535-----3-5-43-----5-12/3-3-5-545535--|----------------------|
B|----------------------------------------------------|----------------------|
                                                     [Don't play this the 2nd time through]


Verse/bridge:

G|---------------------------------------------------------------------------|
D|---------------------------------------------------------------------------|
A|----------3-5~----------------------3-5~----------------------3-5~---------|
E|-5~-3~-1~------5~-3~-1~/5~-5~-3~-1~------5~-3~-1~/5~-5~-3~-1~--------------|
B|---------------------------------------------------------------------------|

G|---------------------------------------------------------------------------|
D|---------------------------------------------------------------------------|
A|---------------------------------------------------------------------------|
E|-5~-3~-1~-1----------------------------------------------------------------|
B|---------------------------------------------------------------------------|
   VERY quiet

G|---------------------------------------------------------------------------|
D|---------------------------------------------------------------------------|
A|-0000000000000000000000000000000000000/12121212121212121212121212----------|
E|---------------------------------------------------------------------------|
B|---------------------------------------------------------------------------|
   Louder

Outro:

G|---------------------------------------------------------------------------|
D|---------------------------------------------------------------------------|
A|------------------3-5--------5-3-------------------------------------------|
E|-12/3--3-5-545535-----3-5-43-----5-12/3-3-5-545535-3-3h4h5~/1--12----------|
B|---------------------------------------------------------------------------|

G|---------------------------------------------------------------------------|
D|---------------------------------------------------------------------------|
A|------------------3-5--------5-3---------------------12-1212-11-11-1010----| <- 11's and 10's
E|-12/3--3-5-545535-----3-5-43-----5-12/3-3-5-545535-------------------------|
B|---------------------------------------------------------------------------|

 Coda 
G|---------------------------------------------------------------------------|
D|---------------------------------------------------------------------------|
A|------------------3-5--------5-3-------------------------------------------|
E|-12/3--3-5-545535-----3-5-43-----5-12/3-3-5-545535-3-3h4h5~/1--12----------|
B|---------------------------------------------------------------------------|

G|---------------------------------------------------------------------------|
D|---------------------------------------------------------------------------|
A|------------------3-5--------5-3-------------------------------------------|
E|-12/3--3-5-545535-----3-5-43-----5-12/3-3-5-545535-------------------------|
B|---------------------------------------------------------------------------|
                                                                             to Coda
You're the one carrying the melody the second time around; no pressure!


| /  slide up
| \  slide down
| h  hammer-on
| p  pull-off
| ~  vibrato
| +  harmonic
| x  Mute note
===============================================================================
Добавлено: 26.12.2015
Другие материалы по этой песне:
  • Аккорды и текст

Страница создана 26.12.2015
http://primanota.ru/knife-party/give-it-up-chords.htm
Привет, Гость.
Предлагаем пройти революционный курс по гитаре.
Подарок от PrimaNota.Ru, забирай!