PrimaNota.ru - самый крупный в мире бесплатный архив песенных текстов, аккордов, табулатур и нот


Knife City - King Noah - таба, видео

Регистрация Запомнить меня
Войти через:  Facebook Google Twitter Vk Yandex Mail.ru

Knife City - King Noah - таба, видео

Печатать
Просмотров: 49
-------------------------------------------------------------------------------
                             KING NOAH - Knife City
-------------------------------------------------------------------------------
Tabbed by: emery01


Tuning: Standard

From the Flyrwrench OST

INTRO:  (notes in brackets are kinda optional)
e|---------------------------------------------------------------------------|
B|---10-----10-----10-----10-----10--10--------------------------------------|
G|-----10-----10-----10-----10-----------------------------------------------|
D|(8)----(8)----(8)----(8)----(8)--(8)---------------------------------------|
A|---------------------------------------------------------------------------|
E|---------------------------------------------------------------------------|

e|---------------------------------------------------------------------------|
B|---86---86---86---86---8--8------------------------------------------------|
G|---------------------------------------------------------------------------|
D|(7)--(7)--(7)--(7)--(7)-(7)------------------------------------------------|
A|---------------------------------------------------------------------------|
E|---------------------------------------------------------------------------|

e|---------------------------------------------------------------------------|
B|---56---56---56---56---56---56---56---56---56---56---56--------------------|
G|---------------------------------------------------------------------------|
D|(3)--(3)--(3)--(3)--(3)--(35)-(5)--(5)--(5)--(5)--(5)--(5/8)---------------|
A|---------------------------------------------------------------------------|
E|---------------------------------------------------------------------------|


(the next bit is nigh un-tab-able)


MAIN SYNTH LEAD:
e|---------------------------------------------------------------------------|
B|8/10-8---5-6-8-13-5-6-15-13-5-8/10-8---5-6-8-13-5-6-18-17-11---------------|
G|---------------------------------------------------------------------------|
D|---------------------------------------------------------------------------|
A|---------------------------------------------------------------------------|
E|---------------------------------------------------------------------------|



************************************

| /   slide up
| \   slide down
| h   hammer-on
| p   pull-off
| ~   vibrato
| +   harmonic
| x   Mute note
| b   Bend
| pb  Pre-bend
| br  Bend release
| pbr Pre-bend release
| brb Bend release bend

************************************
Добавлено: 20.06.2016
Другие материалы по этой песне:
  • Аккорды и текст

Страница создана 20.06.2016
http://primanota.ru/knife-city/king-noah-chords.htm
Привет, Гость.
Предлагаем пройти революционный курс по гитаре.
Подарок от PrimaNota.Ru, забирай!