PrimaNota.ru - самый крупный в мире бесплатный архив песенных текстов, аккордов, табулатур и нот


Kmfdm - Spit Sperm - текст песни, таба, видео

Регистрация Запомнить меня
Войти через:  Facebook Google Twitter Vk Yandex Mail.ru

Kmfdm - Spit Sperm - текст песни, таба, видео

Печатать
Просмотров: 241
                                    KMFDM - SPIT SPERM
                                       GUITAR TAB


Tabbed By Aaron Fornarino


As I said for the bass tab it was rather dissapointing not to find this song as
it is really easy to play. I have included the timing and the changing parts. I
figured that there is only one way to play this song and that is in Drop D it is
too fast for normal power chords and it's much easier to slide up and down the
neck. ENJOY! :)

Drop D Tuning : D A D G B E

Key : / = Slide Down
      \ = Slide Up
      * = Palm Mute (Apart From Different Noted Meanings)
     >< = Wah Pedal (Use Your Imagination With The FootWork!)
      ^ = harmonics

This first guitar riff doesn't start until (0:55 secs) into the song. Play this
very fast as it's difficult to tab all the palm muted notes I suggest playing
with the song to get the timing. Play both parts twice
i.e. -1--1:A--1--1:A-

-1- (0:55 secs)
D --7-7*-7*-7*-7*-7*-7*-7*-12--12-/-10-7*-7*-7*-7*-5--7--8-\-10----|
A --7----------------------12--12-/-10-------------5--7--8-\-10----|
D --7----------------------------------------------5--7--8-\-10----|
G -----------------------------------------------------------------|
B -----------------------------------------------------------------|
E -----------------------------------------------------------------|

-1:A- (0:59 secs)
D --7-7*-7*-7*-7*-7*-7*-7*-12--12-/-10-7*-7*-7*-7*-7*-7*-----------|
A --7----------------------12--12-/-10-----------------------------|
D --7--------------------------------------------------->7-7-7-7<--|
G ------------------------------------------------------>7-7-7-7<--|
B -----------------------------------------------------------------|
E -----------------------------------------------------------------|

:NOTE: I think the end part of 1:A is a Wah Pedal however I do not own one so am
not too sure about that.

-2- (1:08 secs) "Your TV Is My Teacher..." 

D --12----12--10---5--7--\--12--10---|
A --12----12--10---5--7--\--12--10---|
D --12----12--10---5--7--\--12--10---|
G -----------------------------------|
B -----------------------------------|
E -----------------------------------|

-2:A- "Forgive Me Lord For All Of This Hate..." (1:15 secs)

D --12----12--10---5--7--\--12--10---2-\-5-7--12--10----|
A --12----12--10---5--7--\--12--10---2-\-5-7--12--10----|
D --12----12--10---5--7--\--12--10---2-\-5-7--12--10----|
G ------------------------------------------------------|
B ------------------------------------------------------|
E ------------------------------------------------------|


-3- (1:22 secs) Play this 3 times then with 3:A i.e. -3--3--3--3:A-

D --7*-7*-7*-7*-7*-7*-7*-7*-7*--12--10--7*-7*-7*-5*-\-7*--12--10---|
A ------------------------------12--10--------------------12--10---|
D ------------------------------12--10--------------------12--10---|
G -----------------------------------------------------------------|
B -----------------------------------------------------------------|
E -----------------------------------------------------------------|

-3:A- (1:33 secs)

D --7*-7*-7*-7*-7*-7*-7*-7*--5--7--12--10----|
A ---------------------------5--7--12--10----|
D ---------------------------5--7--12--10----|
G -------------------------------------------|
B -------------------------------------------|
E -------------------------------------------|


This part is the harmonics in "See The Gun Pick It Up..". For those who do not
know how to achieve harmonics here's what you do. Touch the string very lightly
(do not press it) with your middle finger and pick each string one by one this is
played at these times (1:39 secs, 1:46 secs), let the harmonics ring out.

-4-

D -7^---------|
A ----7^------|
D -------7^---|
G ------------|
B ------------|
E ------------|


This next part is exactly the same as 1 and 1:A including the sequence. i.e. -1--1:A--1--1:A:-
(1:50 secs)


"Spit! Sperm! This Moral Bankrupt Stinking Vat" is this, use this sequence -5--5:A--5--5:A-

-5- (2:04 secs)

D --12---12--10--5-\-7--12--10-7*-7*-7*-7*-5*-\-7-12-/-10-7*-7*-7*-7*-7*-7*-5*-\-7*-----|
A --12---12--10--5-\-7--12--10--------------------12-/-10-------------------------------|
D --12---12--10--5-\-7--12--10--------------------12-/-10-------------------------------|
G --------------------------------------------------------------------------------------|
B --------------------------------------------------------------------------------------|
E --------------------------------------------------------------------------------------|

"Spit! Sperm! Of Shit-Fueled Lies And Empty Highs.."

-5:A- (2:10 secs)

D --12---12--10--5-\-7--12--10-7*-7*-7*-7*-7*-7*-7*-7*-5--7--12--10-----|
A --12---12--10--5-\-7--12--10-------------------------5--7--12--10-----|
D --12---12--10--5-\-7--12--10-------------------------5--7--12--10-----|
G ----------------------------------------------------------------------|
B ----------------------------------------------------------------------|
E ----------------------------------------------------------------------|

"I Keep Account Of My Hits And My Misses..."
Repeat This Three Times Then 6:A do this twice i.e. -6--6--6--6:A--6--6--6--6:A-

-6- (2:31 secs)

D --7*-7*-7*-7*-7*-7*-7*-7*-12--10-7*-7*-7*-5*-\-7*-12--10-----|
A --------------------------12--10------------------12--10-----|
D --------------------------12--10------------------12--10-----|
G -------------------------------------------------------------|
B -------------------------------------------------------------|
E -------------------------------------------------------------|

-6:A- (2:42 secs)
D --7*-7*-7*-7*-7*-7*-7*-7*--5-7--12-10--|
A ---------------------------5-7--12-10--|
D ---------------------------5-7--12-10--|
G ---------------------------------------|
B ---------------------------------------|
E ---------------------------------------|

On the pitch change it's this, sounds really good :) Play 4 Times ultra fast
(remember the palm mute's are only a guide) but not for the bassline part
i.e. -7--bassline--7--bassline--7--bassline--7--bassline-

-7- (3:00 secs)

D --8*-8*-8*-8*-8-8*-8*-8*-8*-8-----|
A --------------8-------------8-----|
D --------------8-------------8-----|
G ----------------------------------|
B ----------------------------------|
E ----------------------------------|

Play this in this sequence -8--8:A--8--8:A--8--8:A--8--8:B-

-8- (3:28 secs)

D --7-7*-7*-7*-7*-12--12-10--7*-7*-7*-7*-5-\-7-8-10----|
A --7-------------12--12-10--------------5-\-7-8-10----|
D --7-------------12--12-10--------------5-\-7-8-10----|
G -----------------------------------------------------|
B -----------------------------------------------------|
E -----------------------------------------------------|

-8:A- (3:31 secs)

D --7-7*-7*-7*-7*-12--12-10--7*-7*-7*-7*-5-\-7-8----|
A --7-------------12--12-10--------------5-\-7-8----|
D --7-------------12--12-10--------------5-\-7-8----|
G --------------------------------------------------|
B --------------------------------------------------|
E --------------------------------------------------|

-8:B- (3:52 secs)

D --7-7*-7*-7*-7*--2-\-5-7--12--10---|
A --7--------------2-\-5-7--12--10---|
D --7--------------2-\-5-7--12--10---|
G -----------------------------------|
B -----------------------------------|
E -----------------------------------|

Continue that sequence pattern (-8- and -8:A- Only) through the solo I think the
solo is this but i'm not too good at solo's and I don't know how I could explain
how to get it right pretty much how I do it is I hit the 12th note on the B
string but I use my middle finger to hit the 13th string continually hammering on
and off and sliding down and back up to the correct notes if you know what I
mean. Good luck coz I have no idea if that makes sense at all...so here goes... 
:NOTE: - Only pluck the notes with the *'s the distortion should make it sound
loud enough

Repeat Twice with this exception i.e. -9--9:A--9--9:A(Half Only (|))--10:A-

-9- (3:55 secs)

D ---------------------------------------------------------------------------------------|
A ---------------------------------------------------------------------------------------|
D ---------------------------------------------------------------------------------------|
G ---------------------------------------------------------------------------------------|
B --13*-12h13-12h13-12h13-12h13-12h13-12h13-12*-11h12-11h12-11h12-11h12-11h12-11h12------|
E ---------------------------------------------------------------------------------------|

-9:A- (3:58)

D ---------------------------------------------------------------------------------------|
A ---------------------------------------------------------------------------------------|
D ---------------------------------------------------------------------------------------|
G ---------------------------------------------------------------------------------------|
B --15*-14h15-14h15-14h15-14h15-14h15-14h15-|-13*-12h13-12h13-12h13-12h13-12h13-12h13----|
E ---------------------------------------------------------------------------------------|

At the end of the second round when it changes this is the rest (4:45 secs)

-10-

D --8----7----10-----5-7--12-10---|
A --8----7----10-----5-7--12-10---|
D --8----7----10-----5-7--12-10---|
G --------------------------------|
B --------------------------------|
E --------------------------------|

This is the rest of the solo

-10:A- (4:07 secs)
D -------------------------------------------------------------------------|
A -------------------------------------------------------------------------|
D -------------------------------------------------------------------------|
G -------------------------------------------------------------------------|
B --12*h13-\-15------------------------------------------------------------|
E -------------12*h13--15*-15*-BEND-AND-HOLD-THEN-RELEASE-12*h13-/-12------|


Repeat 3 times then -11:A- and for the end 11:B
i.e. -11--11--11--11:A--11--11--11--11:B- 

-11- (4:15 secs)

D --7-7*-7*-7*-7*-7*-12-10-7*-7*-7*-7*-7*-5-7-12-10----|
A --7----------------12-10----------------5-7-12-10----|
D --7----------------12-10----------------5-7-12-10----|
G -----------------------------------------------------|
B -----------------------------------------------------|
E -----------------------------------------------------|

-11:A- (4:26 secs)

D --7*-7*-7*-7*-7*-7*-7*--2-\-5-7-12-10---|
A ------------------------2-\-5-7-12-10---|
D ------------------------2-\-5-7-12-10---|
G ----------------------------------------|
B ----------------------------------------|
E ----------------------------------------|

-11:B- (4:40 secs)

D --7*-7*-7*-7*-7*-7*-7*--2-\-5-7-12-10-12-/--|
A ------------------------2-\-5-7-12-10-12-/--|
D ------------------------2-\-5-7-12-10-12-/--|
G --------------------------------------------|
B --------------------------------------------|
E --------------------------------------------|

TAH DAH! I'm sorry if this is confusing but it was sort of hard trying to explain
it anyhow if you really wanna play it you'll know what I mean.


Please email me with suggestions/comments on this tab as it took rather long to
do and want others to comment if it's accurate or not. Please email me at
skinnyohgr@hotmail.com
Добавлено: 15.07.2012
Другие материалы по этой песне:
  • Аккорды и текст

Страница создана 15.07.2012
http://primanota.ru/kmfdm/spit-sperm-chords.htm
Привет, Гость.
Предлагаем пройти революционный курс по гитаре.
Подарок от PrimaNota.Ru, забирай!