PrimaNota.ru - самый крупный в мире бесплатный архив песенных текстов, аккордов, табулатур и нот


Kmfdm - Real Thing - текст песни, бас-таба, видео

Регистрация Запомнить меня
Войти через:  Facebook Google Twitter Vk Yandex Mail.ru

Kmfdm - Real Thing - текст песни, бас-таба, видео

Печатать
Просмотров: 195
-------------------------------------------------------------------------------
			     Real Thing - KMFDM
-------------------------------------------------------------------------------

Tabbed By : Adrianna Gober
e-mail: agetheguitarshredder@yahoo.com

Tuning: DADG

Intro/Pre-Chorus:

G|-55-5----33--------------|
D|-------55-------3-4-3----| x4
A|-------------66-------6--|
D|-------------------------|

G|----x-5--5-3----|
D|-------------5--| x8
A|-3--------------|
D|----------------|

Play Intro/Pre-Chorus x4


Chorus:

G|--------------------------------------------------------|
D|--------------------------------------------------------|
A|----------------------1111-33333333-------1111-33333333-|
D|-----------------5555----------------5555---------------|
  "Give me the real thing...."

G|-------------------------------------------------------|
D|-------------------------------------------------------|
A|----------------------1111-33333333------1111----------|
D|-----------------5555---------------5555------33333333-|
  "Give me the real thing...."

Outro:

G|-----------------------------------------------------|
D|-----------------------------------------------------| x8
A|-----------------------------------------------------|
D|--5555555555555555/11111111111111111111111111111111--| *

*In case of any confusion, for the outro, you slide to the ELEVENTH fret, not the first, 
play that note x16.


| /  slide up
| \  slide down
| h  hammer-on
| p  pull-off
| ~  vibrato
| +  harmonic
| x  Mute note
===============================================================================
Добавлено: 03.05.2012
Другие материалы по этой песне:
  • Аккорды и текст

Страница создана 18.03.2012
http://primanota.ru/kmfdm/real-thing-chords.htm
Привет, Гость.
Предлагаем пройти революционный курс по гитаре.
Подарок от PrimaNota.Ru, забирай!