PrimaNota.ru - самый крупный в мире бесплатный архив песенных текстов, аккордов, табулатур и нот


Kmfdm - Leid Und Wlend - аккорды и текст, таба, видео

Регистрация Запомнить меня
Войти через:  Facebook Google Twitter Vk Yandex Mail.ru

Kmfdm - Leid Und Wlend - аккорды и текст, таба, видео

Печатать
Просмотров: 110
Leid Und Wlend
Kmfdm
		   e: Wed, 6 May 1998 00:00:34 -0400

this is "Leid Und Elend" by KMFDM.
it is a good song.

LEID UND ELEND (Sorrow And Misery)
from the new (untitled) record
This is not the same as the Einsturzende Neubauten song of the
same name.

intro keyboard:
e-8-10-12-5-5-5-2-3-5-8-8----5-7-8-2-2-2---0-2-5-5-|
B----------------------------------------4---------|
G--------------------------------------------------|
D--------------------------------------------------|
A--------------------------------------------------|
E--------------------------------------------------|

2nd time this intro goes, this plays under it:
e-------------------|
B-------------------|
G--555555----222222-|
D-------------------|
A-------------------|
E-------------------|
those aren't the right amount of times, just listen.

Bassline at :22 or so
e--------------------------------
B--------------------------------
G--------------------------------
D--------------------------------
A--------------------------------
E-2-0-2h5-7p4-2-5----------------
they do that twice, and in between there's some more bass,
mostly 5's and a variation on the above one.

Heavy Guitar bits:
e----------------------
B----------------------
G----------------------
D-7-10-----------------
A-7-10-----------------
E-5--8-----------------

The lyrics are all in German.

Dein Boot Verlasst Den Hafen Unserer Stadt
Alleine Fahrst Du In Die Klare Nacht
Nur Noch Funf Minuten Wunsch Ich Mir
Meine Wahre Sehnsucht Kommt Mit Dir

Ich Liebe Deinen Mond In Meiner Nacht
Ohne Deine Sonne Ist Kein Tag
Du Bist Doch Mein Stern Am Firmament
Ich Bin Der Stein Und Du Bist Mein Zement

Ich Bin Deine Taste Am Klavier
Alles Was Du Wolltest Spiel' Ich Dir
Deiner Sussen Wunde Susser Saft
Macht Mich Sehr Betrunken Ohne Schnaps

CHORUS:
Geteiltes Leid Ist Halbes Leid
Dein Herz Ist Mein Herz
Geteiltes Gluck Ist Halbes Gluck
Dein Schmerz Ist Mein Schmerz

Mein Leid
Dein Elend
Dein Leid
Mein Elend

---------------------------------------------

that's basically it, I think.
if you think I am a god, and want to tell me:
James_Renihan@eyenet.eybe.edu.on.ca     
Добавлено: 23.08.2013
Другие материалы по этой песне:
  • Аккорды и текст

Страница создана 13.05.2012
http://primanota.ru/kmfdm/leid-und-wlend-chords.htm
Привет, Гость.
Предлагаем пройти революционный курс по гитаре.
Подарок от PrimaNota.Ru, забирай!