PrimaNota.ru - самый крупный в мире бесплатный архив песенных текстов, аккордов, табулатур и нот


Kmfdm - Disgust - текст песни, бас-таба, видео

Регистрация Запомнить меня
Войти через:  Facebook Google Twitter Vk Yandex Mail.ru

Kmfdm - Disgust - текст песни, бас-таба, видео

Печатать
Просмотров: 168
Уроки эстрадного вокала в Санкт-Петербурге
Авторы музыки: Raymond Watts, Sascha Konietzko, Rudolf Naomi, En Esch, Günter Schulz

Disgust Bass Tab
Tabbed by Nick Moreau

Note: Crank up the tone and use a pick to get that distinct funky sound.

Verse
g|-----------------------------------------------|
d|-----------------------------------------------|
a|-------------0-0-1-2--2-2-2-2-2-1-0-----0h2----|
e|-0-0-0-3p0-0------------------------3-0--------|
PM----------------------------------------------|

g|----------------------------------------------|
d|----------------------------------------------|
a|-------------0-0-1-2--2-2-2-2-2-1-0-----------|
e|-0-0-0-3p0-0------------------------3-0--3-0--|
PM---------------------------------------------|

Intro/Chorus/Bridge
g|------------------|
d|------------------|
a|------------------|
e|-0-0-0-3--0-0-0-3-|
PM-----------------|
Добавлено: 27.05.2012
Другие материалы по этой песне:
  • Аккорды и текст

Страница создана 26.03.2012
http://primanota.ru/kmfdm/disgust-chords.htm
Привет, Гость.
Предлагаем пройти революционный курс по гитаре.
Подарок от PrimaNota.Ru, забирай!