PrimaNota.ru - самый крупный в мире бесплатный архив песенных текстов, аккордов, табулатур и нот


Kmfdm - Apathy - текст песни, таба, видео

Регистрация Запомнить меня
Войти через:  Facebook Google Twitter Vk Yandex Mail.ru

Kmfdm - Apathy - текст песни, таба, видео

Печатать
Просмотров: 163
Авторы музыки: Mark Durante, Sascha Konietzko, Günter Schulz

KMFDM
Apathy
From the album XTORT
Tabbed by javi_twiggy


intro:
e|-------------------------|------------|
b|-------------------------|------------|
g|----------3---------3----|--7---------|
d|----------3---------3----|--7---\3----|
a|--3-2-1-0---0-3-0-2------|--5---\3----|
d|--3-2-1-0---0-3-0-2------|------\3----|


verses:
e|------------------------------|
b|------------------------------|
g|------------------------------|
d|----------2h3---------2h3^----|
a|------------------------------|
d|--0-3-0-0-----0-0-0-0---------|

e|-----------------------------------------------------------------------------------|
b|-----------------------------------------------------------------------------------|
g|-----------------------------------------------------------------------------------|
d|------------------------------------------------------------3-2-------------3-2----|
a|--0-3-3-3-3---0-3-3-3-3---0-3-3-3-3---0-3-3-3-3---0-3-3-3-3-------0-3-3-3-3--------|
d|--0-3-3-3-3---0-3-3-3-3---0-3-3-3-3---0-3-3-3-3---0-3-3-3-3-------0-3-3-3-3--------|


pre-chorus:
e|-----------------------------------------------|
b|-----------------------------------------------|
g|-----------------------------------------------|
d|---5-5--8-8--7-7--3-3--5-5--8-8--7-7--10-10----|
a|---5-5--8-8--7-7--3-3--5-5--8-8--7-7--10-10----|
d|---5-5--8-8--7-7--3-3--5-5--8-8--7-7--10-10----|


chorus: ("apathy!")
e|-----------------------------------------------------|
b|-----------------------------------------------------|
g|-----------------------------------------------------|
d|--7-7--/10-10--9-9--\5-5--/7-7--10-10--9-9--12-12----|
a|--7-7--/10-10--9-9--\5-5--/7-7--10-10--9-9--12-12----|
d|--7-7--/10-10--9-9--\5-5--/7-7--10-10--9-9--12-12----|
Добавлено: 12.06.2012
Другие материалы по этой песне:
  • Аккорды и текст

Страница создана 06.06.2012
http://primanota.ru/kmfdm/apathy-chords.htm
Привет, Гость.
Предлагаем пройти революционный курс по гитаре.
Подарок от PrimaNota.Ru, забирай!