PrimaNota.ru - самый крупный в мире бесплатный архив песенных текстов, аккордов, табулатур и нот


Klutch - Picture Perfect - аккорды и текст, видео

Регистрация Запомнить меня
Войти через:  Facebook Google Twitter Vk Yandex Mail.ru

Klutch - Picture Perfect - аккорды и текст, видео

Печатать
Просмотров: 84
Picture Perfect
Klutch
Picture Perfect by Mark Meehan

Guitar 1- acoustic
Guitar 2- electric
Intro:
Guitar 1
CDCDCDCD

Verse 1:
Guitar 1
e--0----------0-----------------
B--0----------0-----------------
G--4----------4-----------------
D--2----------2-----------------
A--0----------3-----------------
E-------------------------------

Prechorus:
Guitar 1
CDCDCDCD (4x)

Chorus:
Guitar 1
C Cadd4 Asus2 C Cadd4 Asus2

Afterchorus:
CDCDCDCD

Verse 2:
Guitar 1
e-------------------------------------
B-------------------------------------
G-------------------------------------
D-------------------------------------
A--0-0-0-0-0-3----0-0-0-0-0-3--5--3--0
E-------------------------------------
Guitar 2
e--0----------0-----------------
B--0----------0-----------------
G--4----------4-----------------
D--2----------2-----------------
A--0----------3-----------------
E-------------------------------

Prechorus 2:
Guitar 1
CDCDCDCD (4x)
Guitar 2
e--0----------0--
B--0----------0--
G--4----------6--
D--2----------4--
A--3----------5--
E----------------

Chorus 2:
Guitar 1
C Cadd4 Asus2 F G7 C Cadd4 Asus2 F G7
Guitar 2
C5 C5 A5 F5 G5

Afterchorus:
Guitar 1
CDCDCDCD

Afterchorus 2:
Guitar 1
CDCDCDCD
Guitar 2
e--0----------0--
B--0----------0--
G--4----------6--
D--2----------4--
A--3----------5--
E----------------

Bridge:
Guitar 1
FGFGFGFG Dm C G Am C G
Guitar 2
F5G5F5G5F5G5F5G5 D5 C5 G5 A5 C5 G5

Guitar 1
Dm C G Am C G (4x)

Guitar 1
Dm C G Am C G (4x)
Guitar 2
D5 C5 G5 A5 C5 G5

Chorus 2:
Guitar 1
C Cadd4 Asus2 F G7 C Cadd4 Asus2 F G7
Guitar 2
C5 C5 A5 F5 G5

Afterchorus:
CDCDCDCD

Chorus w/solo:
Guitar 1
C Cadd4 Asus2 F G7 C Cadd4 Asus2 F G7
Guitar 2
e--8-7-10-7-8--5-h3-5--1--16-15-13--3
B------------------------------------
G------------------------------------
D------------------------------------
A------------------------------------
E------------------------------------

Guitar 1
C Cadd4 
     
Добавлено: 29.06.2013
Другие материалы по этой песне:
  • Аккорды и текст

Страница создана 29.06.2013
http://primanota.ru/klutch/picture-perfect-chords.htm
Привет, Гость.
Предлагаем пройти революционный курс по гитаре.
Подарок от PrimaNota.Ru, забирай!