PrimaNota.ru - самый крупный в мире бесплатный архив песенных текстов, аккордов, табулатур и нот


Kls - Kiitän Luojaani Sinusta - аккорды и текст, видео

Регистрация Запомнить меня
Войти через:  Facebook Google Twitter Vk Yandex Mail.ru

Kls - Kiitän Luojaani Sinusta - аккорды и текст, видео

Печатать
Просмотров: 126
Уроки эстрадного вокала в Санкт-Петербурге
Kiitän Luojaani Sinusta
Kls
Vire puoli sävelaskelta alaspäin (D# G# C# F# A# D#)
Alkuperäisessä biisissä näppäillään intro, kolmas säkeistö (Niin ystäväänsä...)
ja 8 tahtia ennen Kiitän päivistä... -lopetusta ja loput menee sointuja rämpytellen.

Intro:

  Bm                                G                 
||----------------|----------------|----------------|----------------|
||----3-----------|----------------|----3-----------|----------------|
||----------------|----------------|--0-------------|----------------|
||--4-------------|----------------|----------------|----------------|
||2---------------|----------------|----------------|----------------|
||----------------|----------------|3---------------|----------------|

 Bm                                G                D       A
|----------------|----------------|----------------|----------------|
|----3-----------|----------------|----3-----------|----3--------2--|
|----------------|----------------|--0-------------|--2-------2-----|
|--4-------------|----------------|----------------|0---------------|
|2---------------|----------------|----------------|--------0-------|
|----------------|----------------|3---------------|----------------|

G
Niin poika tyttöään rakastaa
                           Bm
Kuin ei olisi muita täällä lainkaan
G          D
    Ja haluaa
       A                Bm
Tahtoo päivästä toiseen kantaa
   G         D
Iloja ja suruja
        A          Bm
Jakavat salaisuuksia
             G           D
Ja kaipuu on liian kaunista
            A            G
Ei sitä voi sanoin kuvailla
       A
Paitsi näin:

G      Em       Bm        D
Kiitän Luojaani sinusta
G      Em       Bm        D
Kiitän Luojaani sinusta

G
Niin äiti lastaan tuudittaa
                   Bm
Hellimmin käsivarsillaan
G          D
    Ja haluaa
       A           Bm
Tahtoo elämän opettaa
             G            D
Kyynelillään kastelee sen maan
               A             Bm
Jolla lapsensa hiljaa kasvaa saa
           G              D
Yön syliin hiuksiaan silittää
          A          G
Ja jättää uneen lämpimään
              A
Kuiskaa vielä näin:

G      Em       Bm        D
Kiitän Luojaani sinusta
G      Em       Bm        D
Kiitän Luojaani sinusta

G
Niin ystäväänsä vuoteessaan
              Bm
Rukouksissaan muistaa
G          D
    Ja haluaa
          A                Bm
Kiitoksen taivaisiin kohottaa
            G      
Vietetyistä öistä saa
D                  A
Aamuun valvotuista laulamaan
        Bm                G                D
Yhdessä yössä kun oppivat toistensa sielut tuntemaan
      A            G
Laulu kiirii halki maan
       A
Kiitän Luojaani

G    Em           Bm          D
           Kiitän luojaani
G    Em           Bm          D
           Kiitän luojaani    

G    Em    Bm    Bm
G    Em    Bm    Bm

             G
Kiitän päivistä
             Em
Kiitän hetkistä
            Bm       D
Valvotuista öistä
                  G
Ja kiitän sydämen retkistä
     Em                Bm        D
Syleilyistä, rakkauden töistä
             G
Kiitän päivistä
             Em
Kiitän hetkistä
            Bm       D
Valvotuista öistä
                  G
Ja kiitän sydämen retkistä
     Em                Bm        D
Syleilyistä, rakkauden töistä

G    Em
Добавлено: 17.05.2016
Другие материалы по этой песне:
  • Аккорды и текст

Страница создана 17.05.2016
http://primanota.ru/kls/kiitan-luojaani-sinusta-chords.htm
Привет, Гость.
Предлагаем пройти революционный курс по гитаре.
Подарок от PrimaNota.Ru, забирай!