PrimaNota.ru - самый крупный в мире бесплатный архив песенных текстов, аккордов, табулатур и нот


Klaatu - Dog Star - таба, видео

Регистрация Запомнить меня
Войти через:  Facebook Google Twitter Vk Yandex Mail.ru

Klaatu - Dog Star - таба, видео

Печатать
Просмотров: 130
I only have the Sun Set album.  Some day, I might do the Endangered Species version.  
Until then - courage.


Tabbed by: Kozogula
Email: kozogula@hotmail.com

Tuning: EADGBe

Riff 1
note - do the x577xx chord with an upstroke

e|-----------------------|----------------------|-----------------------|---------|
B|--------------------8--|----------------------|--------------------8--|---------|
G|-------7-----9p7-------|-------7-----9p7------|-------7-----9p7-------|-7-------|
D|----9-----9------9-----|----9-----9------9----|----9-----9------9-----|-7-------|
A|-7---------------------|-7------------------5-|-7---------------------|-5--7----|
E|-----------------------|----------------------|-----------------------|---------|


Riff 2

e|-----------------------|----------------------|-----------------------|
B|--------------------8--|----------------------|--------------------8--|
G|-------7-----9p7-------|-------7-----9p7------|-------7-----9p7-------|
D|----9-----9------9-----|----9-----9------9----|----9-----9------9-----|
A|-7---------------------|-7------------------5-|-7---------------------|
E|-----------------------|----------------------|-----------------------|

e|---------10---10--|
B|---------12---11--|
G|-7----------------|
D|-7----------------|
A|-5--7-------------|
E|------------------|


Riff 3

e|----------------|------------------|----------------|------------------|
B|----------------|------------------|----------------|------------------|
G|----------------|------------------|----------------|------------------|
D|----------------|------------------|----------------|------------------|
A|-2---2---2---2--|-2---2---2-0-1-2--|-2---2---2---2--|-2---2---2-0-1-2--|
E|-0---0---0---0--|-0---0---0--------|-0---0---0---0--|-0---0---0--------|

e|-----6-----6----|-----3-----3----|-----6-----6----|-----8-----8----|
B|-----5-----5----|-----2-----2----|-----5-----5----|-----7-----7----|
G|-----5-----5----|-----2-----2----|-----5-----5----|-----7-----7----|
D|-----5-----5----|-----2-----2----|-----5-----5----|-----7-----7----|
A|-3-3-3-3-3-3----|-0-0-0-0-0-0----|-3-3-3-3-3-3----|-5-5-5-5-5-5----|
E|----------------|----------------|----------------|----------------|


Riff 4

e|------------|------------|------------|---------------|
B|------------|------------|------------|---------------|
G|-7---7-9----|-7---7-9----|-7---7-9----|---------------|
D|-7---7-9----|-7---7-9----|-7---7-9----|---------------|
A|-5---5-7----|-5---5-7----|-5---5-7----|-5-------------|
E|------------|------------|------------|---7---5---3---|

Riff 5

e|------|------|------|------|-0----|-0----|-2----|-2----|-0----|----------------|
B|------|------|------|------|-0----|-1----|-3----|-0----|-2----|----------------|
G|------|------|------|------|-1----|-0----|-2----|-2----|-2----|----------------|
D|------|------|------|------|-2----|-2----|-0----|-1----|-2----|----------------|
A|-7----|-5----|-5----|-7----|-2----|-3----|------|-2----|-0----|-2---0----------|
E|-7----|-5----|-3----|-5----|-0----|------|------|------|------|---------3---2--|

e|-----------------|----------------|-----------------|------------|
B|-----------------|-------8--------|-----------------|------------|
G|-----9-7-9-7-9-7-|-9-7-9-----9----|-----9-7-9-7-9-7-|-9-7--------|
D|-----------------|----------------|-----------------|-----9-5----|
A|-----------------|----------------|-----------------|------------|
E|-0---------------|----------------|-0---------------|------------|


Le order:::

Riff 1
Riff 2
Riff 3 x 2
Riff 4 x 2
Riff 2
Riff 3 x 2
Riff 4 x 2
Riff 5
Second half of Riff 3
Second half of Riff 5
Second half of Riff 3
Riff 4 x 4
Riff 1 repeat until ending

************************************

| p   pull-off

************************************
Добавлено: 14.04.2012
Другие материалы по этой песне:
  • Аккорды и текст

Страница создана 14.04.2012
http://primanota.ru/klaatu/dog-star-chords.htm
Привет, Гость.
Предлагаем пройти революционный курс по гитаре.
Подарок от PrimaNota.Ru, забирай!