PrimaNota.ru - самый крупный в мире бесплатный архив песенных текстов, аккордов, табулатур и нот


Kk - Aasman Ke - таба, видео

Регистрация Запомнить меня
Войти через:  Facebook Google Twitter Vk Yandex Mail.ru

Kk - Aasman Ke - таба, видео

Печатать
Просмотров: 111
Уроки эстрадного вокала в Санкт-Петербурге
PTL 

                 KK – Aasman ke
                  From Humsafar
Submitted By Sanjeev George and Thomas George to and for www.ultimate-
guitar.com,the site for all your tab needs.
SanjeevGeorge123@yahoo.co.in
Intro: F  C  Dm

Verse 1:
   Gm           F            Eb          F
Asmaan ke hain sare tare Hai Mera chaand kahan
   Gm             F                   Eb             F
Ankhein hai num Dil mein hai ghum Ho kuch to rehem khuda  
Chorus:
Gm    F         Eb      F
o o o o  o Mere Pyaar se Mila
Gm     F       Eb      F
O o o o o Sun Le meri dua

Verse 2:
  Gm           F      Eb          F  
Hai char din zindagi Ghum hai Bepanaah
   Gm           F        Eb       F
Yeh dil mera kho gaya Dard-e-be-dawa
    Gm   F     Eb  F
Berang hai Mera jahan
   Gm    F   Eb    F
Kismat meri Saza zara


Repeat the above
Solo: 

e|----------------------------------------------------------------|
B|--------------------------------13-13h15------------------------|
G|-------15-17b19-r17-17\14v---15----------12vv----12\10-10vvv----|
D|----15----------------------------------------------------------|
A|----------------------------------------------------------------|
E|----------------------------------------------------------------|

e|-------------------13v----13v----13v----13v---------------------|
B|-------11-13-13/15-----13-----11-----10-------------------------|
G|---/12--------------------------------------10/12vvvv-----------|
D|----------------------------------------------------------------|
A|----------------------------------------------------------------|
E|----------------------------------------------------------------|

Then Gm  F  Eb  F  Gm
Stanza:
  Gm           Bb      Cm          F
Chahat ki rasmon ko hum nibahye Jaate hain
 Gm          Bb     Eb
Ishq ke dard ko sehte hain
   Dm        Dm         bb            Dm
Aahon mein Ashko Mein Raatein Guzray Sanam
   Dm         Dm       F           Eb
Imtehaan Sab De Chuke Ab toh Dede Sila!!

Chorus till end
Outro guitar:
e|-------------------------------------------------------------18p17v-----15--|
B|--------15-18-15v------15--18--------------15-18-15v------15---------18-----|
G|-----15-------------17--------17vv------15-------------17-------------------|
D|--17---------------------------------17-------------------------------------|
A|----------------------------------------------------------------------------|
E|----------------------------------------------------------------------------|

e|----------------------------------------------------------18p17v-----15-----|
B|--------15-18-15v-------15-18-------------15-18-15v----15---------18--------|
G|-----15-------------17--------17v------15-----------17----------------------|
D|--17--------------------------------17--------------------------------------|
A|----------------------------------------------------------------------------|
E|----------------------------------------------------------------------------|
(W/pitch shifter)
e|-------15-18-15vvvvvv------|
B|-15-18---------------------|
G|---------------------------|
D|---------------------------|
A|---------------------------|
E|---------------------------|

| /  slide up
| \  slide down
| h  hammer-on
| p  pull-off
| ~  let ring
| +  harmonic
| x  Mute note
| v  vibrato

Please be sure to rate and comment
Добавлено: 23.04.2012
Другие материалы по этой песне:
  • Аккорды и текст

Страница создана 23.04.2012
http://primanota.ru/kk/aasman-ke-chords.htm
Привет, Гость.
Предлагаем пройти революционный курс по гитаре.
Подарок от PrimaNota.Ru, забирай!