PrimaNota.ru - самый крупный в мире бесплатный архив песенных текстов, аккордов, табулатур и нот


Kjwan - Pintura - таба, бас-таба, видео

Регистрация Запомнить меня
Войти через:  Facebook Google Twitter Vk Yandex Mail.ru

Kjwan - Pintura - таба, бас-таба, видео

Печатать
Просмотров: 280





----------------------------------------------------------------------------
                             Pintura-Kjwan
----------------------------------------------------------------------------
Tabbed by: Jarry (Iligan CT)
Email: lactaceed@yahoo.com
Friendster: lactaceed@yahoo.com


Tuning: Dropped D
| /  slide up
|   slide down
| h  hammer-on
| x  Mute note
| ^  bend


NOTE: ito yung part ng tabs kung saan mapakingggan sa chorus lng...ok..!!



Sino ka ba......
                   
e|----------------------------|
B|----------------------------| 
G|----------------------------|   
D|----------------------------|
A|---5-3----------------------|
D|-0-----6--5---3--5--3--5--3^|


Ano ang yung lihim.....

e|-------------------------------------|
B|-------------------------------------| 
G|-------------------------------------|   
D|-------------------------------------|
A|---5-3-------------------------------|
D|-0-----6--5---3--5--3--5--3--5--3--0-|


tnks g0d..!!
Добавлено: 02.07.2012
Другие материалы по этой песне:
  • Аккорды и текст

Страница создана 26.02.2012
http://primanota.ru/kjwan/pintura-chords.htm
Привет, Гость.
Предлагаем пройти революционный курс по гитаре.
Подарок от PrimaNota.Ru, забирай!