PrimaNota.ru - самый крупный в мире бесплатный архив песенных текстов, аккордов, табулатур и нот


Kjwan - Daan - таба, бас-таба, видео

Регистрация Запомнить меня
Войти через:  Facebook Google Twitter Vk Yandex Mail.ru

Kjwan - Daan - таба, бас-таба, видео

Печатать
Просмотров: 221
                            "DAAN" BY KJWAN
                       transcribed by: freongang  
                   visit me at: freongang_81@yahoo.com 
                        freongang_08@yahoo.com

         (check nyo nlng ulit,ok na well develop ko n sya)
  
intro:
        both guitar
e|---------------------------|
B|--6h7h6--------------------|
G|---------6h8h6-------------|
D|---------------------------|
A|---------------------------|
E|---------------------------|
                  Both guitar
e|-------------------------------------------------|
B|-------------------------------------------------|
G|-4-4-4-4-4-4-4-----------------6-6-6-4-4-3-1-----|
D|-4-4-4-4-4-4-4-7-7-7-7-7-7-7-7-6-6-6-4-4-3-1-----|
A|-2-2-2-2-2-2-2-7-7-7-7-7-7-7-7-4-4-4-2-2-1-1-----|
E|---------------5-5-5-5-5-5-5-5-------------------|
                   
                  GuitarI

   GuitarII   X3             then 
e|---------------------  -------------------------|
B|-6-7-----------------  --6-7-----6--8--6---9b---|
G|-----6-8-------------  ------6-8----8-----10b---|
D|----------6-7--------   ------------------------|
A|---------------------  -------------------------|
E|---------------------  -------------------------|

e|-------------------------------------------------|
B|-------------------------------------------------|
G|-4-4-4-4-4-4-4-----------------6-6-6-4-4-3-1-----|
D|-4-4-4-4-4-4-4-7-7-7-7-7-7-7-7-6-6-6-4-4-3-1-----|
A|-2-2-2-2-2-2-2-7-7-7-7-7-7-7-7-4-4-4-2-2-1-1-----|
E|---------------5-5-5-5-5-5-5-5-------------------|

Tumawag walang tao…
e|----------------------------------------------------|
B|-(let ring)-----------------------------------------|
G|--4----------4-4-4-4-4-4----------------------------|
D|--4----------4-4-4-4-4-4-7-7-7-7-7-7-6-6-6-4-4-3-1--|
A|--2----------2-2-2-2-2-2-7-7-7-7-7-7-6-6-6-4-4-3-1--|
E|-------------------------5-5-5-5-5-5-4-4-4-2-2-1-1--|

Inakit ng isang sugo…
e|----------------------------------------------------|
B|-(let ring)-----------------------------------------|
G|--4----------4-4-4-4-4-4----------------------------|
D|--4----------4-4-4-4-4-4-7-7-7-7-7-7-6-6-6-4-4-3-1--|
A|--2----------2-2-2-2-2-2-7-7-7-7-7-7-6-6-6-4-4-3-1--|
E|-------------------------5-5-5-5-5-5-4-4-4-2-2-1-1--|

Chorus:
Sana mag iisang magliligtas syo…  guitarI
e|-------------------------------------------------------------------|
B|-------------------------------------------------------------------|
G|-4-4-4-4-4-4-4-4-6-6-6-6-6-6-6-6-7-7-7-7-7-7-9-9-9-9-9-9-9--7-9-10-|
D|-4-4-4-4-4-4-4-4-6-6-6-6-6-6-6-6-7-7-7-7-7-7-9-9-9-9-9-9-9---------|
A|-2-2-2-2-2-2-2-2-4-4-4-4-4-4-4-4-5-5-5-5-5-5-7-7-7-7-7-7-7--5-7-8--|
E|-------------------------------------------------------------------|
                          
           (follow up of - guitarII)
e|-------------------------------------------------|
B|-------------------------------------------------|
G|-4-4-4-4-4-4-4-----------------6-6-6-4-4-3-1-----|
D|-4-4-4-4-4-4-4-7-7-7-7-7-7-7-7-6-6-6-4-4-3-1-----|
A|-2-2-2-2-2-2-2-7-7-7-7-7-7-7-7-4-4-4-2-2-1-1-----|
E|---------------5-5-5-5-5-5-5-5-------------------|

Sana malaman mo ang tunay na sagot… guitarI
e|-------------------------------------------------------------------|
B|-------------------------------------------------------------------|
G|-4-4-4-4-4-4-4-4-6-6-6-6-6-6-6-6-7-7-7-7-7-7-9-9-9-9-9-9-9--7-9-10-|
D|-4-4-4-4-4-4-4-4-6-6-6-6-6-6-6-6-7-7-7-7-7-7-9-9-9-9-9-9-9---------|
A|-2-2-2-2-2-2-2-2-4-4-4-4-4-4-4-4-5-5-5-5-5-5-7-7-7-7-7-7-7--5-7-8--|
E|-------------------------------------------------------------------|
                          
           (follow up of - guitarII)
e|-------------------------------------------------|
B|-------------------------------------------------|
G|-4-4-4-4-4-4-4-----------------6-6-6-4-4-3-1-----|
D|-4-4-4-4-4-4-4-7-7-7-7-7-7-7-7-6-6-6-4-4-3-1-----|
A|-2-2-2-2-2-2-2-7-7-7-7-7-7-7-7-4-4-4-2-2-1-1-----|
E|---------------5-5-5-5-5-5-5-5-------------------|


                 Both guitar
e|-------------------------------------------------|
B|-------------------------------------------------|
G|-4-4-4-4-4-4-4-----------------6-6-6-4-4-3-1-----|
D|-4-4-4-4-4-4-4-7-7-7-7-7-7-7-7-6-6-6-4-4-3-1-----|
A|-2-2-2-2-2-2-2-7-7-7-7-7-7-7-7-4-4-4-2-2-1-1-----|
E|---------------5-5-5-5-5-5-5-5-------------------|
                   
                  GuitarI

   GuitarII   X3             then 
e|---------------------  -------------------------|
B|-6-7-----------------  --6-7-----6--8--6---9b---|
G|-----6-8-------------  ------6-8----8-----10b---|
D|----------6-7--------   ------------------------|
A|---------------------  -------------------------|
E|---------------------  -------------------------|

Sumama sa mga tao…
E|----------------------------------------------------|
B|-(let ring)-----------------------------------------|
G|--4----------4-4-4-4-4-4----------------------------|
D|--4----------4-4-4-4-4-4-7-7-7-7-7-7-6-6-6-4-4-3-1--|
A|--2----------2-2-2-2-2-2-7-7-7-7-7-7-6-6-6-4-4-3-1--|
E|-------------------------5-5-5-5-5-5-4-4-4-2-2-1-1--|


Inutos ng inyong sugo…
E|----------------------------------------------------|
B|-(let ring)-----------------------------------------|
G|--4----------4-4-4-4-4-4----------------------------|
D|--4----------4-4-4-4-4-4-7-7-7-7-7-7-6-6-6-4-4-3-1--|
A|--2----------2-2-2-2-2-2-7-7-7-7-7-7-6-6-6-4-4-3-1--|
E|-------------------------5-5-5-5-5-5-4-4-4-2-2-1-1--|


Chorus:
Sana mag iisang magliligtas syo…  guitarI
e|-------------------------------------------------------------------|
B|-------------------------------------------------------------------|
G|-4-4-4-4-4-4-4-4-6-6-6-6-6-6-6-6-7-7-7-7-7-7-9-9-9-9-9-9-9--7-9-10-|
D|-4-4-4-4-4-4-4-4-6-6-6-6-6-6-6-6-7-7-7-7-7-7-9-9-9-9-9-9-9---------|
A|-2-2-2-2-2-2-2-2-4-4-4-4-4-4-4-4-5-5-5-5-5-5-7-7-7-7-7-7-7--5-7-8--|
E|-------------------------------------------------------------------|
                          
           (follow up of - guitarII)
e|-------------------------------------------------|
B|-------------------------------------------------|
G|-4-4-4-4-4-4-4-----------------6-6-6-4-4-3-1-----|
D|-4-4-4-4-4-4-4-7-7-7-7-7-7-7-7-6-6-6-4-4-3-1-----|
A|-2-2-2-2-2-2-2-7-7-7-7-7-7-7-7-4-4-4-2-2-1-1-----|
E|---------------5-5-5-5-5-5-5-5-------------------|

Sana malaman mo ang tunay na sagot… guitarI
e|-------------------------------------------------------------------|
B|-------------------------------------------------------------------|
G|-4-4-4-4-4-4-4-4-6-6-6-6-6-6-6-6-7-7-7-7-7-7-9-9-9-9-9-9-9--7-9-10-|
D|-4-4-4-4-4-4-4-4-6-6-6-6-6-6-6-6-7-7-7-7-7-7-9-9-9-9-9-9-9---------|
A|-2-2-2-2-2-2-2-2-4-4-4-4-4-4-4-4-5-5-5-5-5-5-7-7-7-7-7-7-7--5-7-8--|
E|-------------------------------------------------------------------|
                          
           (follow up of - guitarII)
e|-------------------------------------------------|
B|-------------------------------------------------|
G|-4-4-4-4-4-4-4-----------------6-6-6-4-4-3-1-----|
D|-4-4-4-4-4-4-4-7-7-7-7-7-7-7-7-6-6-6-4-4-3-1-----|
A|-2-2-2-2-2-2-2-7-7-7-7-7-7-7-7-4-4-4-2-2-1-1-----|
E|---------------5-5-5-5-5-5-5-5-------------------|

               X12
e|-----------------------------------|
B|-----------------------------------|
G|-----------------------------------|
D|-----------------------------------|
A|-----7-5-7-5------7-5-7-5----------|
E|--3------------3-----------5-3-----|

Chorus:
Sana mag iisang magliligtas syo…  guitarI
e|-------------------------------------------------------------------|
B|-------------------------------------------------------------------|
G|-4-4-4-4-4-4-4-4-6-6-6-6-6-6-6-6-7-7-7-7-7-7-9-9-9-9-9-9-9--7-9-10-|
D|-4-4-4-4-4-4-4-4-6-6-6-6-6-6-6-6-7-7-7-7-7-7-9-9-9-9-9-9-9---------|
A|-2-2-2-2-2-2-2-2-4-4-4-4-4-4-4-4-5-5-5-5-5-5-7-7-7-7-7-7-7--5-7-8--|
E|-------------------------------------------------------------------|
                          
           (follow up of - guitarII)
e|-------------------------------------------------|
B|-------------------------------------------------|
G|-4-4-4-4-4-4-4-----------------6-6-6-4-4-3-1-----|
D|-4-4-4-4-4-4-4-7-7-7-7-7-7-7-7-6-6-6-4-4-3-1-----|
A|-2-2-2-2-2-2-2-7-7-7-7-7-7-7-7-4-4-4-2-2-1-1-----|
E|---------------5-5-5-5-5-5-5-5-------------------|

Sana malaman mo ang tunay na sagot… guitarI
e|-------------------------------------------------------------------|
B|-------------------------------------------------------------------|
G|-4-4-4-4-4-4-4-4-6-6-6-6-6-6-6-6-7-7-7-7-7-7-9-9-9-9-9-9-9--7-9-10-|
D|-4-4-4-4-4-4-4-4-6-6-6-6-6-6-6-6-7-7-7-7-7-7-9-9-9-9-9-9-9---------|
A|-2-2-2-2-2-2-2-2-4-4-4-4-4-4-4-4-5-5-5-5-5-5-7-7-7-7-7-7-7--5-7-8--|
E|-------------------------------------------------------------------|
                          
           (follow up of - guitarII)
e|-------------------------------------------------|
B|-------------------------------------------------|
G|-4-4-4-4-4-4-4-----------------6-6-6-4-4-3-1-----|
D|-4-4-4-4-4-4-4-7-7-7-7-7-7-7-7-6-6-6-4-4-3-1-----|
A|-2-2-2-2-2-2-2-7-7-7-7-7-7-7-7-4-4-4-2-2-1-1-----|
E|---------------5-5-5-5-5-5-5-5-------------------|

                 Both guitar
e|-------------------------------------------------|
B|-------------------------------------------------|
G|-4-4-4-4-4-4-4-----------------6-6-6-4-4-3-1-----|
D|-4-4-4-4-4-4-4-7-7-7-7-7-7-7-7-6-6-6-4-4-3-1-----|
A|-2-2-2-2-2-2-2-7-7-7-7-7-7-7-7-4-4-4-2-2-1-1-----|
E|---------------5-5-5-5-5-5-5-5-------------------|

Outro: X4
e|---------------|
B|---------------|
G|-4-4-4-4-4-4-4-|
D|-4-4-4-4-4-4-4-|
A|-2-2-2-2-2-2-2-|
E|---------------|
    <<<>>>

                       
                       SA ILALIM BY: KJWAN
                   TRANSCRIBED BY: FREONGANG
                VISIT ME AT: freongang_81@yahoo.com
                    freongang_08@yahoo.com

intro:
e|-------------------------------------------------------------------|
B|-------------------------------------------------------------------|
G|-------------------------------------------------------------------|
D|-8-8-8-8-8-8-8-8--8-8-8-8-8-8-8-8--4-4-4-4-4-4-4---4-4-4-4--3-3--6-|
A|-8-8-8-8-8-8-8-8--8-8-8-8-8-8-8-8--4-4-4-4-4-4-4---4-4-4-4--3-3--6-|
E|-6-6-6-6-6-6-6-6--6-6-6-6-6-6-6-6--2-2-2-2-2-2-2---2-2-2-2--1-1--4-|

nahigop sa ilalim...
e|-------------------  --------------------|
B|-------------------  --------------------|
G|-------------------  --------------------|
D|-8-8-8-6---8-8-8-6-  --8-8-8-6---8-8-8-6-|
A|-8-8-8-6---8-8-8-6-  --8-8-8-6---8-8-8-6-|
E|-------------------  --------------------|

binuksan ang mata...
e|-------------------  --------------------|
B|-------------------  --------------------|
G|-------------------  --------------------|
D|-6-6-6-4---6-6-6-4-  --6-6-6-4---6-6-6-4-|
A|-6-6-6-4---6-6-6-4-  --6-6-6-4---6-6-6-4-|
E|-------------------  --------------------|

nakita ang pag ibig...
e|-------------------  --------------------|
B|-------------------  --------------------|
G|-------------------  --------------------|
D|-8-8-8-6---8-8-8-6-  --8-8-8-6---8-8-8-6-|
A|-8-8-8-6---8-8-8-6-  --8-8-8-6---8-8-8-6-|
E|-------------------  --------------------|

nasilaw sa ganda...
e|-------------------  --------------------|
B|-------------------  --------------------|
G|-------------------  --------------------|
D|-6-6-6-4---6-6-6-4-  --6-6-6-4---6-6-6-4-|
A|-6-6-6-4---6-6-6-4-  --6-6-6-4---6-6-6-4-|
E|-------------------  --------------------|


chorus: X2
 handa ka na ba para makita ang iyong kinagisnan...
e|-------------------------------------------------------------------|
B|-------------------------------------------------------------------|
G|-------------------------------------------------------------------|
D|-8-8-8-8-8-8-8-8--8-8-8-8-8-8-8-8--4-4-4-4-4-4-4---4-4-4-4--3-3--6-|
A|-8-8-8-8-8-8-8-8--8-8-8-8-8-8-8-8--4-4-4-4-4-4-4---4-4-4-4--3-3--6-|
E|-6-6-6-6-6-6-6-6--6-6-6-6-6-6-6-6--2-2-2-2-2-2-2---2-2-2-2--1-1--4-|

adlib1:
        X2
e|-----------------  ----------------  --------------|
B|--------10-9-11b-  -9b--------7-6--  --------------|
G|-10-7-9----------  ----7-10-9------  --9-9-7-5-5-8-|
D|-----------------  ----------------  --------------|
A|-----------------  ----------------  --------------|
E|-----------------  ----------------  --------------|

dumaloy ang daluyong...
e|-------------------  --------------------|
B|-------------------  --------------------|
G|-------------------  --------------------|
D|-8-8-8-6---8-8-8-6-  --8-8-8-6---8-8-8-6-|
A|-8-8-8-6---8-8-8-6-  --8-8-8-6---8-8-8-6-|
E|-------------------  --------------------|

naubos ang lakas...
e|-------------------  --------------------|
B|-------------------  --------------------|
G|-------------------  --------------------|
D|-6-6-6-4---6-6-6-4-  --6-6-6-4---6-6-6-4-|
A|-6-6-6-4---6-6-6-4-  --6-6-6-4---6-6-6-4-|
E|-------------------  --------------------|

sumama sa pag agos...
e|-------------------  --------------------|
B|-------------------  --------------------|
G|-------------------  --------------------|
D|-8-8-8-6---8-8-8-6-  --8-8-8-6---8-8-8-6-|
A|-8-8-8-6---8-8-8-6-  --8-8-8-6---8-8-8-6-|
E|-------------------  --------------------|

nalunod nawala...
e|-------------------  --------------------|
B|-------------------  --------------------|
G|-------------------  --------------------|
D|-6-6-6-4---6-6-6-4-  --6-6-6-4---6-6-6-4-|
A|-6-6-6-4---6-6-6-4-  --6-6-6-4---6-6-6-4-|
E|-------------------  --------------------|

chorus: X2
 handa ka na ba para makita ang iyong kinagisnan...
e|-------------------------------------------------------------------|
B|-------------------------------------------------------------------|
G|-------------------------------------------------------------------|
D|-8-8-8-8-8-8-8-8--8-8-8-8-8-8-8-8--4-4-4-4-4-4-4---4-4-4-4--3-3--6-|
A|-8-8-8-8-8-8-8-8--8-8-8-8-8-8-8-8--4-4-4-4-4-4-4---4-4-4-4--3-3--6-|
E|-6-6-6-6-6-6-6-6--6-6-6-6-6-6-6-6--2-2-2-2-2-2-2---2-2-2-2--1-1--4-|

adlib2: X2
            X3                            X2
e|----------------------------  -------------------------|
B|----------------------------  -------------------------|
G|-8/10-10-10--10/13-13-13-13-  -17-17-17--16-16--14-14--|
D|----------------------------  -------------------------|
A|-6/8--8--8---8/-11-11-11-11-  -15-15-15--14-14--12-12--|
E|----------------------------  -------------------------|
              -just follow the sequence-
                       freongang



Добавлено: 23.05.2012
Другие материалы по этой песне:
  • Аккорды и текст

Страница создана 17.05.2012
http://primanota.ru/kjwan/daan-chords.htm
Привет, Гость.
Предлагаем пройти революционный курс по гитаре.
Подарок от PrimaNota.Ru, забирай!