PrimaNota.ru - самый крупный в мире бесплатный архив песенных текстов, аккордов, табулатур и нот


Kjøtt - Jeg Vil Bli Som Jesus - аккорды и текст, видео

Регистрация Запомнить меня
Войти через:  Facebook Google Twitter Vk Yandex Mail.ru

Kjøtt - Jeg Vil Bli Som Jesus - аккорды и текст, видео

Печатать
Просмотров: 78
Уроки эстрадного вокала в Санкт-Петербурге
Jeg Vil Bli Som Jesus
Kjøtt
Intro:

e|---------------------------------------------------------------------------|
B|---------0-----------1-----------5-----------3---------------------------------|
G|-------0---0-------0---0-------7---7-------5---5-----------------------------------|
D|-----2-------2---2-------2---7-------7---5-------5--------------------------------|
A|---2-----------3-----------5-----------3---------------------------------------|
E|-0--------------------------------------------------------------------------|

e|---------------------------------------------------------------------------|
B|---------0-----------1----------5-----------3----------------------------------|
G|-------0---0-------0--0-------7---7-------5---------------------------------------|
D|-----2-------2---2------2---7-------7---5-----------------------------------------|
A|---2-----------3----------5-----------3----------------------------------------|
E|-0--------------------------------------------------------------------------| 

Em C D x4

Em             C   D    Em            C   D
Jeg vil bli som Jesus - gå i hvite klær
Em             C   D    Em            Bm  A
Med glorie rundt hue, så ser alle hvem jeg er

Em             C   D    Em            C   D
Jeg vil bli som Elvis, tjene masse gryn
Em             C   D    Em            Bm  A
Så alle gutta snur seg når jeg kjører gjennom by'n

Mellomspill: 

e|-----------------------------------------------------------------------------------------------|
B|-----------------------------------------------------------------------------------------------|
G|---------------------------------12-14-14b16-16-16-16-16-16-16-16-16r14-14-14-14-14-14-14-14---|
D|-9(hold)-9----------------14--14---------------------------------------------------------------|
A|----12------12-10------------------------------------------------------------------------------|
E|------------------12---------------------------------------------------------------------------|

e|-----------------------------------------------------------------------------------------------|
B|-----------------------------------------------------------------------------------------------|
G|-14---14-12------------------------------------------------------------------------------------|
D|------------14~~/------------------------------------------------------------------------------|
A|-----------------------------------------------------------------------------------------------|
E|-----------------------------------------------------------------------------------------------|

Em             C   D    Em            C   D
Jeg vil bli som Buddha, sitte under et tre
Em             C   D    Em            Bm  A
og se på alle folka bøye seg i kne

Em             C   D    Em            C   D
Jeg vil bli som Mao, forandre mange ting
Em             C   D    Em            Bm  A
Ha bilder av meg sjæl på alle vegga i Peking

Solo:

e|----------------------------------------------------------------------------------------|
B|----------------------------------------------------------------------------------------|
G|----------------------------------12---14-------12-------12----14----12-----------------|
D|--------------------------14~--14---14----14-14-------14----14----14--------------------|
A|-14-14-14-12----------------------------------------------------------------------------|
E|-------------15-12/--0------------------------------------------------------------------|

e|----------------------------------------------------------------------------------------|
B|--------------------------------------------------(slow bend w/ picking))---------------|
G|----12-12----11-11----12----14---14-14-141414-14-14-14b16r14--------------14b16r14------|
D|-14-------14-------14----14--------------------------------------------------------14---|
A|----------------------------------------------------------------------------------------|
E|----------------------------------------------------------------------------------------|

Em             C   D    Em            C   D
Jeg vil bli som Jesus - gå i hvite klær
Em             C   D    Em            Bm  A
Med glorie rundt hue, så ser alle hvem jeg er

Em             C   D    Em            C   D
Jeg vil bli som Elvis, tjene masse gryn
Em             C   D    Em            Bm  A
Så alle gutta snur seg når jeg kjører gjennom by'n

Mellomspill:

e|--------------------------------------------------------------------------------------|
B|--------------------------------------------------------------------------------------|
G|-----------------------------------------------------------------12-------------------|
D|---------------------------14---14-14-14-14-14-14-12-12-12---14b16r14-12-14-----------|
A|-14----14-----------------------------------------------------------------------------|
E|----17-----17-15-12/--0---------------------------------------------------------------|

Em             C   D    Em            C   D
Jeg vil bli som Mao, forandre mange ting
Em             C   D    Em            Bm  A
Ha bilder av meg sjæl på alle vegga i Peking

Em             C   D    Em            C   D
Jeg vil bli som Buddha, sitte under et tre
Em             C   D    
Skjønne alt i verden
Em            Bm  A
yeah, yeah, yeah

Solo:

e|----------------------------------------------------------------------------------------------------|
B|----------------------------------------------------------------------------------------------------|
G|---------------------------------12----14---12-------12----14----14-14--14--12----12-11----11-------|
D|----------------------------14------14------------14----14----14---------------14-------14----14----|
A|-14----14-------------------------------------------------------------------------------------------|
E|----17-----17-15-12/---0----------------------------------------------------------------------------|

e|----------------------------------------------------------------------------------------------------|
B|--------------------------------------------------------------------(slow bend w/ picking))---------|
G|-12-------14-------12-------11----11-12---12h11----11---------12-14-14b16r14---------------14-12----|
D|----14-14----14-14----14-14----14---------------14----14---14------------------------------------14-|
A|----------------------------------------------------------------------------------------------------|
E|----------------------------------------------------------------------------------------------------|

e|-----------------------------------------------------------------------|
B|-----------------------------------------------------------------------|
G|-11-12-14-12-11--------------------------------------------------------|
D|----------------14-----------------------------------------------------|
A|-----------------------------------------------------------------------|
E|-----------------------------------------------------------------------|

Em C D Em C D x 4

End on Em 
Добавлено: 03.01.2016
Другие материалы по этой песне:
  • Аккорды и текст

Страница создана 03.01.2016
http://primanota.ru/kjtt/jeg-vil-bli-som-jesus-chords.htm
Привет, Гость.
Предлагаем пройти революционный курс по гитаре.
Подарок от PrimaNota.Ru, забирай!