PrimaNota.ru - самый крупный в мире бесплатный архив песенных текстов, аккордов, табулатур и нот


Kiuas - Summers End - таба, видео

Регистрация Запомнить меня
Войти через:  Facebook Google Twitter Vk Yandex Mail.ru

Kiuas - Summers End - таба, видео

Печатать
Просмотров: 207
intro/chorus
E-----5------5---2-0-----------0-2---0----------------------|
B--7-----5-------3-2-3-------3-2-3---2--3---2---3--2--0-----|
G--7-----6-----------4-------4----------4---2---4--2--------|
D-----------------------------------------------0-----4-----|
A--------------------------------------------------4--2-----|
E--7-----5-------3----3-2-0------3------2-------------------|


verse1
E-5---8---7--3--5--0-0----|
B-3---6---5--3--3--1-1-3--|
G-2---5---4--0--2--0-0-2--|
D----------------------0--|
A------------------3-3----|
E-------------------------|

verse2
E-------------------------------|
B--3------------3------3---5----|
G--2------------2------2---4----|
D--0---7---5----0------3---5----|
A------7---5-----------1---3----|
E------5---3--------------------|
   Dm  A   G    Dm     Bb  C

E-----------0------------------0-----------|
B--1--------3----3-5---1-------3-------3---|
G--2---0----2----2-4---2---0---2-------2---|
D--2---0----0----3-5---2---0---0-------0---|
A--0---2---------1-3---0---2-----------1---|
E------3-------------------3---------------|
   Am  G    Dm   Bb C  Am  G  Dm       Dm/C

bridge
E----------|
B----------|
G----------|
D------2---|
A--7-5-4---|
E--9-7-5---|
       A

E--------------------------------------------------------------------------|
B--------------------------------------------------------------------------|
G--7-7---5/7-7-7-----7-7---9/10-10-10----7-7---/14--10--12--9--10-9--5-----|
D--7-7--(2/3-3-3)----7-7--(5/7--7--7)----7-7-------------------------------|
A--5-5---3/5-5-5-----5-5---7/8--8--8-----5-5---/12--8---10--7--8--7--3-----|
E--------------------------------------------------------------------------|

solo/outro
E-------3-5----3---3----5-----------3----5----------------------|
B---3-6----------6---------6-5-3-------------6---3---5-6-5---3--|
G---------------------------------------------------------------|
D---------------------------------------------------------------|
A---------------------------------------------------------------|
E---------------------------------------------------------------|
    Dm-|           C       Dm       C                Am      Dm
Добавлено: 23.12.2013
Вам также может быть интересно:
Другие материалы по этой песне:
  • Аккорды и текст

Страница создана 23.12.2013
http://primanota.ru/kiuas/summers-end-chords.htm
Привет, Гость.
Предлагаем пройти революционный курс по гитаре.
Подарок от PrimaNota.Ru, забирай!