PrimaNota.ru - самый крупный в мире бесплатный архив песенных текстов, аккордов, табулатур и нот


Kiuas - Across The Snows - текст песни, таба, видео

Регистрация Запомнить меня
Войти через:  Facebook Google Twitter Vk Yandex Mail.ru

Kiuas - Across The Snows - текст песни, таба, видео

Печатать
Просмотров: 191
   Across The Snows                                 


                                                                           Kiuas
Guitar 1
miran.omninox@gmail.com



     Press F5 ;)                               
     v                                         
     S           E  E  S E  E  E  S  S   S  S  
D||-----------------0-------------------------|
A||--------------------3-1--3-----3---------3-|
F||--0h----------2----------0-----0-----(0)---|
C||--0-----------L-------------3----(0)-------|
G||-------------------------------------------|
C||-------------------------------------------|


                            v  v ^    v                                
                 |--3--|                                               
  S S S S S S E  S  S  S E  E  S S    S  E  E  S E  E  E  S  S   S  S  
-----------------------------------|--------0-------------------------|
------3-----3-L--L----------3--3-3-|-----------3-1--3-----3---------3-|
----0-----0---L-------------2--2-2-|--0h-2----------0-----0-----(0)---|
--------------3--2h-3p-2----0------|--0--L-------------3----(0)-------|
--3-----2----------------3---------|----------------------------------|
-----------------------------------|----------------------------------|


                         v       v                             
  S S S S S S E  S  S E  Q       E.  E  S S S S S S S S S S S  
------------------------------|------0------------------------|
------3-----3-----------------|---------1---1-------3-------5-|
----0-----0-------------------|--2--------2-------5-------7---|
--------------3----------0----|--2--------------5-------7-----|
--3-----2--------0h-3----0----|--0------------3-------5-------|
----------------------3--7----|-------------------------------|


  v                      v  v ^    v                             
  S  E  E  S S S S S S S E  S S    E.  E  S S S S S S S S S S S  
--------0----------------5--5-5-|------0------------------------|
-----------1---1-------3-5--5-5-|---------1---1-------3-------5-|
--0h-2-------2-------5---5--5-5-|--2--------2-------5-------7---|
--2--L-------------5-----7------|--2--------------5-------7-----|
--0--L-----------3-------7------|--0------------3-------5-------|
--------------------------------|-------------------------------|


  v                      v  v ^                    PM PM  
  S  E  E  S S S S S S S E  S S    H.           E  S  S   
--------0----------------5--5-5-|------------------------|
-----------1---1-------3-5--5-5-|------------------------|
--0h-2-------2-------5---5--5-5-|------------------------|
--2--L-------------5-----7----L-|--0------------L--------|
--0--L-----------3-------7----L-|--0------------L--------|
--------------------------------|--0------------L--0--0--|


            PM PM       PM PM                    PM PM  
  Q    Q    S  S  E  E  S  S     H.           E  S  S   
------------------------------|------------------------|
------------------------------|------------------------|
------------------5--7--x--x--|------------------------|
--3----5----------5--7--x--x--|--0------------L--------|
--3----5----------3--5--5--5--|--0------------L--------|
--3----5----5--5--------------|--0------------L--0--0--|


  Q    Q    E  E  E  E   
------------------------|
------------------------|
------------------------|
--7----5----3-----------|
--7----5----3-----------|
--7----5----3-----------|


  T T T T T T T T T T T T T T T T T T T T T T T T T T T T T T T T  
------------------------------------------------------------------|
------------------------------------------------------------------|
------------------------------------------------------------------|
--0-0-0-0-0-0-7-7-7-7-7-7-0-0-0-0-3-3-3-3-5-5-5-5-0-0-0-0-0-0-0-0-|
------------------------------------------------------------------|
------------------------------------------------------------------|


  T T T T T T T T T T T T T T T T T T T T T T T T T T T T T T T T  
------------------------------------------------------------------|
------------------------------------------------------------------|
------------------------------------------------------------------|
--3-3-3-3-3-3-3-7-7-7-7-7-----------------------------------------|
--------------------------0-0-0-0-3-3-3-3-5-5-5-5-5-5-5-5-5-5-5-5-|
------------------------------------------------------------------|


  T T T T T T T T T T T T T T T T T T T T T T T T T T T T T T T T  
------------------------------------------------------------------|
------------------------------------------------------------------|
------------------------------------------------------------------|
------------------------------------------------------------------|
------------------------------------------------------------------|
--0-0-0-0-0-0-7-7-7-7-7-7-0-0-0-0-3-3-3-3-5-5-5-5-0-0-0-0-0-0-0-0-|


  T T T T T T T T T T T T T T T T T T T T Q.       
--------------------------------------------------|
--------------------------------------------------|
--------------------------------------------------|
--------------------------------------------------|
----------------------------------3-3-3-3-5~------|
--3-3-3-3-3-3-7-7-7-7-7-7-7-7-7-7-----------------|


     |-3-| |-3-|    |-3-| |-3-| |-3-| |-3-|  
  E  S S S S S S E  S S S S S S S S S S S S  
--------------------------------------------|
--------------------------------------------|
--------------------------------------------|
--7--------------7--------------------------|
--5--5-5-5-5-5-5-5--5-5-5-5-5-5-5-5-5-5-5-5-|
--------------------------------------------|


     |-3-| |-3-|     |-3-| |-3-| |-3-| |-3-|  
  E  S S S S S S E   S S S S S S S S S S S S  
---------------------------------------------|
---------------------------------------------|
--------------------10-0-0-9-0-0-7-0-0-5-0-0-|
--3--------------5---------------------------|
--1--1-1-1-1-1-1-5---------------------------|
-----------------5---------------------------|


     |-3-| |-3-|    |-3-| |-3-| |-3-| |-3-|  
  E  S S S S S S E  S S S S S S S S S S S S  
--------------------------------------------|
--------------------------------------------|
--7-----------------------------------------|
-----------------7--------------------------|
-----5-5-5-5-5-5-5--5-5-5-5-5-5-5-5-5-5-5-5-|
--------------------------------------------|


     |-3-| |-3-|    |-3-| |-3-|                             
  E  S S S S S S E  S S S S S S  E  E     W                 
---------------------------------------|-------------------|
---------------------------------------|-------------------|
---------------------------------------|-------------------|
--3--------------5---------------------|--0----------------|
--1--1-1-1-1-1-1-5--------------/8--7--|--0----------------|
-----------------5--5-5-5-5-5-5--------|--0----------------|


           |-3-| |-3-| |-3-| |-3-|                      
  H        S S S S S S S S S S S S    W                 
-----------------------------------|-------------------|
-----------------------------------|-------------------|
--5--------------------------------|-------------------|
--5--------------------------------|--0----------------|
--3--------------------------------|--0----------------|
-----------5-5-5-5-5-5-3-3-3-5-5-5-|--0----------------|


           |-3-| |-3-|          |-3| |-3-| |-3-| |-3-| |-3-| |-3-| |-3-| |-3-|  
  H        S S S S S S E  E     E  S S S S S S S S S S S S S S S S S S S S S S  
-----------------------------|-------------------------------------------------|
-----------------------------|-------------------------------------------------|
--3--------------------------|-------------------------------------------------|
--3-----------------------5--|--7----------------------------------------------|
--1--------------------3--3--|--5--5-5-5-5-5-5-5-5-5-5-5-5-5-5-5-5-5-5-5-5-5-5-|
-----------5-5-5-5-5-5-3-----|-------------------------------------------------|


  |-3| |-3-| |-3-| |-3-| |-3-| |-3-| |-3-| |-3-|  
  E  S S S S S S S S S S S S S S S S S S S S S S  
-------------------------------------------------|
-------------------------------------------------|
-------------------------------------------------|
--5----------------------------------------------|
--3--3-3-3-3-3-3-3-3-3-3-------------------------|
-------------------------5-5-5-5-5-5-3-3-3-5-5-5-|


  |-3| |-3-| |-3-| |-3-| |-3-| |-3-| |-3-| |-3-|             |-3-| |-3-|        
  E  S S S S S S S S S S S S S S S S S S S S S S    H        S S S S S S E  E   
-------------------------------------------------|-----------------------------|
-------------------------------------------------|-----------------------------|
-------------------------------------------------|--3--------------------------|
--0----------------------------------------------|--3-----------------------5--|
--0----------------------------------------------|--1--------------------3--3--|
--0--0-0-0-0-0-0-0-0-0-0-0-0-0-0-0-0-0-0-0-0-0-0-|-----------5-5-5-5-5-5-3-----|


              PM PM    PM PM             PM PM       PM PM  
  H        E  S  S  E  S  S     H        S  S  E  E  S  S   
-----------------------------|-----------------------------|
-----------------------------|-----------------------------|
--2-----------------2--------|--2--------------------------|
--2-----------------2--------|--2--------------5--0--------|
--0-----------------0--0--0--|--0--------------5--0--0--0--|
-----------5--5--5-----------|-----------5--5--5--0--0--0--|


              PM PM    PM PM              PM PM      PM PM PM  
  H        E  S  S  E  S  S     Q    Q    S  S  E  S S  S  S   
-----------------------------|--------------------------------|
-----------------------------|--------------------------------|
--2-----------------2--------|--------------------------------|
--2-----------------2--------|--------------------------------|
--0-----------------0--0--0--|--0----5----------5--7----------|
-----------5--5--5-----------|--0----5----9--7--5--7-7--7--7--|


          PM PM PM PM PM    PM PM           PH   PM PM PM PM    PM PM  
  Q    E  S  S  S  S  E  E  S  S     Q      E.   S  S  S  E  E  S  S   
----------------------------------|-----------------------------------|
----------------------------------|-----------------------------------|
----------------------------------|-----------------------------------|
--0----0-----------------0--------|--5-----------------------0--------|
--0----0-----------------0--------|--3-----------------------0--------|
--0----0--0--2--3--2--0--0--0--0--|-------<>5~---5--3--2--0--0--0--0--|


          PM PM PM PM PM    PM PM    PM PM PM    PM PM PM      PM PM PM  
                                     |--3--|     |--3--|                 
  Q    E  S  S  S  S  E  E  S  S     E  E  E  E  E  E  E  E  S S  S  S   
----------------------------------|-------------------------------------|
----------------------------------|-------------------------------------|
----------------------------------|-------------------------------------|
--0----0-----------------0--------|-----------0-----------5--7----------|
--0----0-----------------0--------|--3--3--3--0--3--3--3--3--5----------|
--0----0--0--2--3--2--0--0--0--0--|--3--3--3--0--3--3--3-------0--0--0--|


          PM PM PM PM PM    PM PM              PM PM PM    PM PM  
  Q    E  S  S  S  S  E  E  S  S     Q    Q    S  S  E  E  S  S   
----------------------------------|------------------------------|
----------------------------------|------------------------------|
----------------------------------|------------------------------|
--0----0-----------------0--------|--5------------------0--------|
--0----0-----------------0--------|--3----5-------------0--------|
--0----0--0--2--3--2--0--0--0--0--|-------5----3--2--0--0--0--0--|


          PM PM PM PM PM    PM PM                      PM PM PM  
  Q    E  S  S  S  S  E  E  S  S     Q    Q    E  E  S S  S  S   
----------------------------------|-----------------------------|
----------------------------------|-----------------------------|
----------------------------------|-----------------------------|
--0----0-----------------0--------|--3---------2--5--7----------|
--0----0-----------------0--------|--1----5----0--3--5-5--5--5--|
--0----0--0--2--3--2--0--0--0--0--|-------5---------------------|


          PM PM PM PM PM    PM PM              PM PM PM    PM PM  
  Q    E  S  S  S  S  E  E  S  S     Q    Q    S  S  E  E  S  S   
----------------------------------|------------------------------|
----------------------------------|------------------------------|
----------------------------------|------------------------------|
--0----0-----------------0--------|--5------------------0--------|
--0----0-----------------0--------|--3----5-------------0--------|
--0----0--0--2--3--2--0--0--0--0--|-------5----3--2--0--0--0--0--|


          PM PM PM PM PM    PM PM                    PM PM PM PM PM PM  
                                                     |--3--|  |--3--|   
  Q    E  S  S  S  S  E  E  S  S     Q    Q    E  E  S  S  S  S  S  S   
----------------------------------|------------------------------------|
----------------------------------|------------------------------------|
----------------------------------|------------------------------------|
--0----0-----------------0--------|--3---------2--5--------------------|
--0----0-----------------0--------|--1----5----0--3--5--5--5--5--5--5--|
--0----0--0--2--3--2--0--0--0--0--|-------5----------------------------|


                               |-3-| |-3-| |-3-| |-3-|                      
  W                   H        S S S S S S S S S S S S    W                 
-------------------|-----------------------------------|-------------------|
-------------------|-----------------------------------|-------------------|
-------------------|--5--------------------------------|-------------------|
--0----------------|--5--------------------------------|--0----------------|
--0----------------|--3--------------------------------|--0----------------|
--0----------------|-----------5-5-5-5-5-5-3-3-3-5-5-5-|--0----------------|


           |-3-| |-3-|          |-3| |-3-| |-3-| |-3-| |-3-| |-3-| |-3-| |-3-|  
  H        S S S S S S E  E     E  S S S S S S S S S S S S S S S S S S S S S S  
-----------------------------|-------------------------------------------------|
-----------------------------|-------------------------------------------------|
--3--------------------------|-------------------------------------------------|
--3-----------------------5--|--7----------------------------------------------|
--1--------------------3--3--|--5--5-5-5-5-5-5-5-5-5-5-5-5-5-5-5-5-5-5-5-5-5-5-|
-----------5-5-5-5-5-5-3-----|-------------------------------------------------|


  |-3| |-3-| |-3-| |-3-| |-3-| |-3-| |-3-| |-3-|  
  E  S S S S S S S S S S S S S S S S S S S S S S  
-------------------------------------------------|
-------------------------------------------------|
-------------------------------------------------|
--5----------------------------------------------|
--3--3-3-3-3-3-3-3-3-3-3-------------------------|
-------------------------5-5-5-5-5-5-3-3-3-5-5-5-|


  |-3| |-3-| |-3-| |-3-| |-3-| |-3-| |-3-| |-3-|             |-3-| |-3-|        
  E  S S S S S S S S S S S S S S S S S S S S S S    H        S S S S S S E  E   
-------------------------------------------------|-----------------------------|
-------------------------------------------------|-----------------------------|
-------------------------------------------------|--3--------------------------|
--0----------------------------------------------|--3-----------------------5--|
--0----------------------------------------------|--1--------------------3--3--|
--0--0-0-0-0-0-0-0-0-0-0-0-0-0-0-0-0-0-0-0-0-0-0-|-----------5-5-5-5-5-5-3-----|


          PM PM PM PM PM    PM PM           PH   PM PM PM PM    PM PM  
  Q    E  S  S  S  S  E  E  S  S     Q      E.   S  S  S  E  E  S  S   
----------------------------------|-----------------------------------|
----------------------------------|-----------------------------------|
----------------------------------|-----------------------------------|
--0----0-----------------0--------|--5-----------------------0--------|
--0----0-----------------0--------|--3-----------------------0--------|
--0----0--0--2--3--2--0--0--0--0--|-------<>5~---5--3--2--0--0--0--0--|


          PM PM PM PM PM    PM PM    PM PM PM    PM PM PM      PM PM PM  
                                     |--3--|     |--3--|                 
  Q    E  S  S  S  S  E  E  S  S     E  E  E  E  E  E  E  E  S S  S  S   
----------------------------------|-------------------------------------|
----------------------------------|-------------------------------------|
----------------------------------|-------------------------------------|
--0----0-----------------0--------|-----------0-----------5--7----------|
--0----0-----------------0--------|--3--3--3--0--3--3--3--3--5----------|
--0----0--0--2--3--2--0--0--0--0--|--3--3--3--0--3--3--3-------0--0--0--|


          PM PM PM PM PM    PM PM              PM PM PM    PM PM  
  Q    E  S  S  S  S  E  E  S  S     Q    Q    S  S  E  E  S  S   
----------------------------------|------------------------------|
----------------------------------|------------------------------|
----------------------------------|------------------------------|
--0----0-----------------0--------|--5------------------0--------|
--0----0-----------------0--------|--3----5-------------0--------|
--0----0--0--2--3--2--0--0--0--0--|-------5----3--2--0--0--0--0--|


          PM PM PM PM PM    PM PM                      PM PM PM  
  Q    E  S  S  S  S  E  E  S  S     Q    Q    E  E  S S  S  S   
----------------------------------|-----------------------------|
----------------------------------|-----------------------------|
----------------------------------|-----------------------------|
--0----0-----------------0--------|--3---------2--5--7----------|
--0----0-----------------0--------|--1----5----0--3--5-5--5--5--|
--0----0--0--2--3--2--0--0--0--0--|-------5---------------------|


          PM PM PM PM PM    PM PM              PM PM PM    PM PM  
  Q    E  S  S  S  S  E  E  S  S     Q    Q    S  S  E  E  S  S   
----------------------------------|------------------------------|
----------------------------------|------------------------------|
----------------------------------|------------------------------|
--0----0-----------------0--------|--5------------------0--------|
--0----0-----------------0--------|--3----5-------------0--------|
--0----0--0--2--3--2--0--0--0--0--|-------5----3--2--0--0--0--0--|


          PM PM PM PM PM    PM PM                    PM PM PM PM PM PM  
                                                     |--3--|  |--3--|   
  Q    E  S  S  S  S  E  E  S  S     Q    Q    E  E  S  S  S  S  S  S   
----------------------------------|------------------------------------|
----------------------------------|------------------------------------|
----------------------------------|------------------------------------|
--0----0-----------------0--------|--3---------2--5--------------------|
--0----0-----------------0--------|--1----5----0--3--5--5--5--5--5--5--|
--0----0--0--2--3--2--0--0--0--0--|-------5----------------------------|


  |-3| |-3-| |-3-| |-3-| |-3-| |-3-| |-3-| |-3-|  
  E  S S S S S S S S S S S S S S S S S S S S S S  
-------------------------------------------------|
-------------------------------------------------|
-------------------------------------------------|
--5----------------------------------------------|
--5----------------------------------------------|
--5--5-5-5-5-5-5-5-5-5-5-5-5-5-5-5-5-5-5-5-5-5-5-|


  |-3| |-3-| |-3-| |-3-| |-3| |-3-|  |-3| |-3-|  
  E  S S S S S S S S S S E  S S S S  E  S S S S  
------------------------------------------------|
------------------------------------------------|
------------------------------------------------|
--5----------------------3----------10----------|
--3--3-3-3-3-3-3-3-3-3-3-1--1-1-1-1--8--8-8-8-8-|
------------------------------------------------|


  |-3| |-3-| |-3-| |-3-| |-3-| |-3-| |-3| |-3-|  
  E  S S S S S S S S S S S S S S S S E  S S S S  
------------------------------------------------|
------------------------------------------------|
------------------------------------------------|
--5----------------------------------7----------|
--5----------------------------------5--5-5-5-5-|
--5--5-5-5-5-5-5-5-5-5-5-5-5-5-5-5-5------------|


  |-3| |-3-| |-3-| |-3-| |-3| |-3-| |-3| |-3-|  
  E  S S S S S S S S S S E  S S S S E  S S S S  
-----------------------------------------------|
-----------------------------------------------|
-----------------------------------------------|
--8----------------------5----------7----------|
--6--6-6-6-6-6-6-6-6-6-6-3--3-3-3-3-5--5-5-5-5-|
-----------------------------------------------|


  |-3| |-3-| |-3-| |-3-| |-3-| |-3-| |-3-| |-3-|  
  E  S S S S S S S S S S S S S S S S S S S S S S  
-------------------------------------------------|
-------------------------------------------------|
-------------------------------------------------|
--5----------------------------------------------|
--5----------------------------------------------|
--5--5-5-5-5-5-5-5-5-5-5-5-5-5-5-5-5-5-5-5-5-5-5-|


  |-3| |-3-| |-3-| |-3-| |-3| |-3-|  |-3| |-3-|  
  E  S S S S S S S S S S E  S S S S  E  S S S S  
------------------------------------------------|
------------------------------------------------|
------------------------------------------------|
--5----------------------3----------10----------|
--3--3-3-3-3-3-3-3-3-3-3-1--1-1-1-1--8--8-8-8-8-|
------------------------------------------------|


  |-3| |-3-| |-3-| |-3-| |-3-| |-3-| |-3| |-3-|  
  E  S S S S S S S S S S S S S S S S E  S S S S  
------------------------------------------------|
------------------------------------------------|
------------------------------------------------|
--5----------------------------------7----------|
--5----------------------------------5--5-5-5-5-|
--5--5-5-5-5-5-5-5-5-5-5-5-5-5-5-5-5------------|


  |-3| |-3-| |-3-| |-3-| |-3| |-3-|  |-3| |-3-|  
  E  S S S S S S S S S S E  S S S S  E  S S S S  
------------------------------------------------|
------------------------------------------------|
------------------------------------------------|
--8----------------------3----------10----------|
--6--6-6-6-6-6-6-6-6-6-6-1--1-1-1-1--8--8-8-8-8-|
------------------------------------------------|


          PM PM PM PM PM    PM PM              PM PM PM    PM PM  
  Q    E  S  S  S  S  E  E  S  S     Q    Q    S  S  E  E  S  S   
----------------------------------|------------------------------|
----------------------------------|------------------------------|
----------------------------------|------------------------------|
--0----0-----------------0--------|--5------------------0--------|
--0----0-----------------0--------|--3----5-------------0--------|
--0----0--0--2--3--2--0--0--0--0--|-------5----3--2--0--0--0--0--|


          PM PM PM PM PM    PM PM                      PM PM PM  
  Q    E  S  S  S  S  E  E  S  S     Q    Q    E  E  S S  S  S   
----------------------------------|-----------------------------|
----------------------------------|-----------------------------|
----------------------------------|-----------------------------|
--0----0-----------------0--------|--3---------2--5--7----------|
--0----0-----------------0--------|--1----5----0--3--5-5--5--5--|
--0----0--0--2--3--2--0--0--0--0--|-------5---------------------|


          PM PM PM PM PM    PM PM              PM PM PM    PM PM  
  Q    E  S  S  S  S  E  E  S  S     Q    Q    S  S  E  E  S  S   
----------------------------------|------------------------------|
----------------------------------|------------------------------|
----------------------------------|------------------------------|
--0----0-----------------0--------|--5------------------0--------|
--0----0-----------------0--------|--3----5-------------0--------|
--0----0--0--2--3--2--0--0--0--0--|-------5----3--2--0--0--0--0--|


          PM PM PM PM PM    PM PM            PM PM          PM PM  
  Q    E  S  S  S  S  E  E  S  S     Q    E  S  S  E  E  E  S  S   
----------------------------------|-------------------------------|
----------------------------------|-------------------------------|
----------------------------------|-------------------------------|
--0----0-----------------0--------|--3-------------2--5--7--------|
--0----0-----------------0--------|--1----5--------0--3--5--5--5--|
--0----0--0--2--3--2--0--0--0--0--|-------5--5--5-----------------|


  From here acoustic part may be wrong...                               
  v                                                                     
  S                                       E  E  S E  E  E  S  S   S  S  
---------------------------------------------0-------------------------|
------------------------------------------------3-1--3-----3---------3-|
--0h--------------------------------------2----------0-----0-----(0)---|
--0---------------------------------------L-------------3----(0)-------|
-----------------------------------------------------------------------|
-----------------------------------------------------------------------|


  ...it's f*cking hard to take it by ear >___<                                 
                                                                       v  v ^  
                                                            |--3--|            
  S                                            S S S S S E  S  S  S E  E  S S  
------------------------------------------------------------------------------|
-------------------------------------------------3-----3-L--L----------3--3-3-|
-----------------------------------------------0-----0---L-------------2--2-2-|
---------------------------------------------------------3--2h-3p-2----0------|
--3------------------------------------------------2----------------3---------|
------------------------------------------------------------------------------|


  Mikko's talent is realy great!                                   
  v                                                                
  S                              S E  T  T  S  E  E  E   S  S S S  
-----------------------------------0------------------------------|
--------------------------------------5h-6p-5p-1-----1------1-----|
--0h-----------------------------2----------------2------2----2-0-|
--0------------------------------L--------------------------------|
--------------------------------------------------------(0)-------|
------------------------------------------------------------------|


   (P.S. : Sorry for my English ^^ )                                  
                                                                  ^   
   T                                T  S S S E  S S T  T  S E  E  E   
---------------------------------------------------------------------|
---------------------------------------------------------------------|
---0h-------------------------------2p-0--------------------------7--|
-----------------------------------------3-2-0--2-3-2h-3p-2-------7--|
--(0)-------------------------------------------------------3--5--5--|
---------------------------------------------------------------------|


  v   ^  ^             v  v ^    v           v         v    v   ^  v    v   ^   
              |-3-|              |--3--|     |-3-|                              
  E.  E  S E  S S S E  E  S S    S  S  S S S S S S S S S  S S   S  S  S S   S   
------------------------------|------------------------------------------------|
------------------------------|------------------------------------------------|
--2---2--2-------------2--2-2-|------------------------------------------------|
--0---0--0-3--2-3-2----0--0-0-|--2h-3p-2-----0---------0----x---x--0----x---x--|
--0---0--0----------3--0--0-0-|--0-------3-0-0-3-0-----0----x--(0)-0----x--(0)-|
--0---0--0-------------0--0-0-|--0-----------0-----5-3-5s-7-7~-----5s-7-7~-----|


  v   ^  ^  v    v   ^   v   v  v     v     v             v  v ^  
  E.  E  S  E    S   S   E   E  E     Q     Q     S S S S E  S S  
-----------------------------------|-----------------------------|
-----------------------------------|-----------------------------|
--2---2--2-------------------2-----|----------------------2------|
--0---0--0-(3)--(0)-(0)-(2)--0-----|--0----(2)------------0------|
--0---0--0--0---(0)-(0)-(0)--0--0--|--0-----3-----3-0-----0--0-0-|
--0---0--0--3----2---3---2---0--0--|--3-----0---------5-3-0--0-0-|


  v                                                            v  v ^  
                                                    |--3--|            
  S  E  E  S E  E  E  S  S   S  S    S S S S S S E  S  S  S E  E  S S  
--------0-------------------------|-----------------------------------|
-----------3-1--3-----3---------3-|------3-----3-L--L----------3--3-3-|
--0h-2----------0-----0-----(0)---|----0-----0---L-------------2--2-2-|
--0--L-------------3----(0)-------|--------------3--2h-3p-2----0------|
----------------------------------|--3-----2----------------3---------|
----------------------------------|-----------------------------------|


  v                                                         v     
  S  E  E  S E  E  E  S  S   S  S    S S S S S S E  S  S E  Q     
--------0-------------------------|------------------------------|
-----------3-1--3-----3---------3-|------3-----3-----------------|
--0h-2----------0-----0-----(0)---|----0-----0-------------------|
--0--L-------------3----(0)-------|--------------3----------0----|
----------------------------------|--3-----2--------0h-3----0----|
----------------------------------|----------------------3--7----|


  v                                                            v  v ^  
                                                    |--3--|            
  S  E  E  S E  E  E  S  S   S  S    S S S S S S E  S  S  S E  E  S S  
--------0-------------------------|-----------------------------------|
-----------3-1--3-----3---------3-|------3-----3-L--L----------3--3-3-|
--0h-2----------0-----0-----(0)---|----0-----0---L-------------2--2-2-|
--0--L-------------3----(0)-------|--------------3--2h-3p-2----0------|
----------------------------------|--3-----2----------------3---------|
----------------------------------|-----------------------------------|


  v                                                         v     
  S  E  E  S E  E  E  S  S   S  S    S S S S S S E  S  S E  Q     
--------0-------------------------|------------------------------|
-----------3-1--3-----3---------3-|------3-----3-----------------|
--0h-2----------0-----0-----(0)---|----0-----0-------------------|
--0--L-------------3----(0)-------|--------------3----------0----|
----------------------------------|--3-----2--------0h-3----0----|
----------------------------------|----------------------3--7----|


                                PM PM    PM PM PM PM PM    PM PM  
  E  E  E  E  E  E  E  E     E  S  S  E  S  S  S  S  E  E  S  S   
--------------------------|--------------------------------------|
--------------------------|--------------------------------------|
--------------------------|--------------------------------------|
--0-----0-----0-----0-----|--5--------------------------0--------|
--0-----0-----0-----0-----|--3--3--3--5-----------------0--------|
--0-----0-----0-----0-----|-----------5--5--5--3--2--0--0--0--0--|


                                PM PM    PM PM PM PM PM        
  E  E  E  E  E  E  E  E     E  S  S  E  S  S  S  S  E  Q      
--------------------------|-----------------------------------|
--------------------------|-----------------------------------|
--------------------------|-----------------------------------|
--0-----0-----0-----0-----|--5--------------------------------|
--0-----0-----0-----0-----|--3--3--3--5-----------------5~----|
--0-----0-----0-----0-----|-----------5--5--5--3--2--0--------|


  PM PM PM PM PM PM PM PM PM PM PM PM       PM PM    PM PM PM PM PM    PM PM  
  S  S  E  S  S  E  S  S  E  S  S  E     E  S  S  E  S  S  S  S  E  E  S  S   
--------------------------------------|--------------------------------------|
--------------------------------------|--------------------------------------|
--------------------------------------|--------------------------------------|
--------------------------------------|--5--------------------------0--------|
--0--0--0--0--0--0--0--0--0--0--0--0--|--3--3--3--5-----------------0--------|
--0--0--0--0--0--0--0--0--0--0--0--0--|-----------5--5--5--3--2--0--0--0--0--|


  PM PM PM PM PM PM PM PM PM PM PM PM  
  S  S  E  S  S  E  S  S  E  S  S  E   
--------------------------------------|
--------------------------------------|
--------------------------------------|
--------------------------------------|
--0--0--0--0--0--0--0--0--0--0--0--0--|
--0--0--0--0--0--0--0--0--0--0--0--0--|


     PM PM    PM PM                        
  E  S  S  E  S  S  E  E  T T T T T T T T  
------------------------------------------|
------------------------------------------|
------------------------------------------|
--3-----------------2--5------------------|
--1--1--1--5--------0--3--5-5-5-5-5-5-5-5-|
-----------5--5--5------------------------|


  T T T T T T T T T T T T T T T T T T T T T T T T T T T T T T T T  
------------------------------------------------------------------|
------------------------------------------------------------------|
------------------------------------------------------------------|
--0-0-0-0-0-0-7-7-7-7-7-7-0-0-0-0-3-3-3-3-5-5-5-5-0-0-0-0-0-0-0-0-|
------------------------------------------------------------------|
------------------------------------------------------------------|


  T T T T T T T T T T T T T T T T T T T T T T T T T T T T T T T T  
------------------------------------------------------------------|
------------------------------------------------------------------|
------------------------------------------------------------------|
--3-3-3-3-3-3-3-7-7-7-7-7-----------------------------------------|
--------------------------0-0-0-0-3-3-3-3-5-5-5-5-5-5-5-5-5-5-5-5-|
------------------------------------------------------------------|


  T T T T T T T T T T T T T T T T T T T T T T T T T T T T T T T T  
------------------------------------------------------------------|
------------------------------------------------------------------|
------------------------------------------------------------------|
------------------------------------------------------------------|
------------------------------------------------------------------|
--0-0-0-0-0-0-7-7-7-7-7-7-0-0-0-0-3-3-3-3-5-5-5-5-0-0-0-0-0-0-0-0-|


  T T T T T T T T T T T T T T T T T T T T Q.       
--------------------------------------------------|
--------------------------------------------------|
--------------------------------------------------|
--------------------------------------------------|
----------------------------------3-3-3-3-5~------|
--3-3-3-3-3-3-7-7-7-7-7-7-7-7-7-7-----------------|


  T T T T T T T T T T T T T T T T T T T T T T T T T T T T T T T T  
------------------------------------------------------------------|
------------------------------------------------------------------|
------------------------------------------------------------------|
--0-0-0-0-0-0-7-7-7-7-7-7-0-0-0-0-3-3-3-3-5-5-5-5-0-0-0-0-0-0-0-0-|
------------------------------------------------------------------|
------------------------------------------------------------------|


  T T T T T T T T T T T T T T T T T T T T T T T T T T T T T T T T  
------------------------------------------------------------------|
------------------------------------------------------------------|
------------------------------------------------------------------|
--3-3-3-3-3-3-3-7-7-7-7-7-----------------------------------------|
--------------------------0-0-0-0-3-3-3-3-5-5-5-5-5-5-5-5-5-5-5-5-|
------------------------------------------------------------------|


  T T T T T T T T T T T T T T T T T T T T T T T T T T T T T T T T  
------------------------------------------------------------------|
------------------------------------------------------------------|
------------------------------------------------------------------|
------------------------------------------------------------------|
------------------------------------------------------------------|
--0-0-0-0-0-0-7-7-7-7-7-7-0-0-0-0-3-3-3-3-5-5-5-5-0-0-0-0-0-0-0-0-|


                                                PM PM                      
  T T T T T T T T T T T T T T T T T T T T Q     S  S     W                 
------------------------------------------------------|-------------------|
------------------------------------------------------|-------------------|
------------------------------------------------------|-------------------|
------------------------------------------------------|--0----------------|
----------------------------------3-3-3-3-5~----0--0--|--0----------------|
--3-3-3-3-3-3-7-7-7-7-7-7-7-7-7-7---------------0--0--|--0----------------|


  W                   W                   W                   W                 
-------------------|-------------------|-------------------|-------------------|
-------------------|-------------------|-------------------|-------------------|
-------------------|-------------------|-------------------|-------------------|
--L----------------|--L----------------|--L----------------|--L----------------|
--L----------------|--L----------------|--L----------------|--L----------------|
--L----------------|--L----------------|--L----------------|--L----------------|


  W                   W                   W                                     
-------------------|-------------------|-------------------|-------------------|
-------------------|-------------------|-------------------|-------------------|
-------------------|-------------------|-------------------|-------------------|
--L----------------|--L----------------|--L----------------|-------------------|
--L----------------|--L----------------|--L----------------|-------------------|
--L----------------|--L----------------|--L----------------|-------------------|


-------------------|-------------------|-------------------|-------------------|
-------------------|-------------------|-------------------|-------------------|
-------------------|-------------------|-------------------|-------------------|
-------------------|-------------------|-------------------|-------------------|
-------------------|-------------------|-------------------|-------------------|
-------------------|-------------------|-------------------|-------------------|


-------------------|-------------------|-------------------|-------------------|
-------------------|-------------------|-------------------|-------------------|
-------------------|-------------------|-------------------|-------------------|
-------------------|-------------------|-------------------|-------------------|
-------------------|-------------------|-------------------|-------------------|
-------------------|-------------------|-------------------|-------------------|


-------------------|-------------------||
-------------------|-------------------||
-------------------|-------------------||
-------------------|-------------------||
-------------------|-------------------||
-------------------|-------------------||




Duration Legend
---------------
W - whole
H - half
Q - quarter
E - 8th
S - 16th
T - 32nd
X - 64th
. - note dotted
|-n-|  - n-tuplets


Tablature Legend
----------------
L - tied note
x - dead note
g - grace note
(n) - ghost note
> - accentuded note
NH - natural harmonic
AH - artificial harmonic
TH - tapped harmonic
SH - semi harmonic
PH - pitch harmonic
h - hammer on
p - pull off
b - bend
br - bendRelease
pb - preBend
pbr - preBendRelease
brb - bendReleaseBend
\n/ - tremolo bar dip
\n - tremolo bar dive
-/n - tremolo bar Release up
/n\ - tremolo bar inverted dip
/n - tremolo bar return
-\n - tremolo bar Release down
S - shift slide
s - legato slide
/ -  slide into from below or out of upwards
\ -  slide into from above or out of downwards
~ - vibrato
W - wide vibrato
tr - trill
TP - tremolo picking
T - tapping
S - slap
P - pop
< - fade in
^ - brush up
v - brush down
Добавлено: 21.10.2013
Вам также может быть интересно:
Другие материалы по этой песне:

Страница создана 09.06.2012
http://primanota.ru/kiuas/across-the-snows-chords.htm
Привет, Гость.
Предлагаем пройти революционный курс по гитаре.
Подарок от PrimaNota.Ru, забирай!