PrimaNota.ru - самый крупный в мире бесплатный архив песенных текстов, аккордов, табулатур и нот


Kittie - Witch Hunt - текст песни, таба, видео

Регистрация Запомнить меня
Войти через:  Facebook Google Twitter Vk Yandex Mail.ru

Kittie - Witch Hunt - текст песни, таба, видео

Печатать
Просмотров: 132
well i tried my best to make this song as accurate as possible i kinda left out the
that tara plays (sorry tara) because i wasnt so sure of it
but i did keep both of the main distortion guitars :D (Tara does play one of the dist.
anyways good luck.

Tabbed By L_E_M_U_R
Artist DUH Kittie (:D)


Gtr. 1 INTRO                                    x4
D-----------------|------------------------------|----------|
A-----------------|------------------------------|----------|
F-----------------|------------------------------|----------|
C-2-2-2-2-2-------|-2-2-2-2-2-2-2-2-2-2-2-2-2-2-2|----------|
G-2-2-2-2-2-------|-2-2-2-2-2-2-2-2-2-2-2-2-2-2-2|----------|
C-2-2-2-2-2-------|-2-2-2-2-2-2-2-2-2-2-2-2-2-2-2|----------|
PM_______ ^let fade (all slightly palm muted)


Gtr.2 INTRO        PRE-VERSE                    X4
D-----------------|------------------------------|----------|
A-----------------|------------------------------|----------|
F-----------------|------------------------------|----------|
C-----------------|-------3-------5-------6-5-4-3|----------|
G-----------------|-------3-------5-------6-5-4-3|----------|
C-----------------|-------3-------5-------6-5-4-3|----------|

Gtr. 1 VERSE sorta fast not that fast though
D-------------------------------|----------------------------|
A-------------------------------|-PRE-CHORUS-----------------|
F-------------------------------|----------------------------|
C-2-2-2-2-2-2-2-2-2-2-2-2-2-2-2-|8-7-6-7-6-3-1-1-1-1-1-------|
G-2-2-2-2-2-2-2-2-2-2-2-2-2-2-2-|8-7-6-7-6-3-1-1-1-1-1-------|
C-2-2-2-2-2-2-2-2-2-2-2-2-2-2-2-|8-7-6-7-6-3-1-1-1-1-1-------|

Gtr. 2 VERSE
D-------------------------------|---------------------------|
A-------------------------------|---------------------------|
F-------------------------------|---------------------------|
C-------3-------5-------6-3-5-2-|---------------------------|
G-------3-------5-------6-3-5-2-|---------------------------|
C-------3-------5-------6-3-5-2-|---------------------------|

Gtr. 1
D-----------------------------------------------------------|
A-----------------------------------------------------------|
F-----------------------------------------------------------|
C-8-7-6-7-6-3-6-6-6-6-6-8-7-6-7-6-3-1-1-1-1-1---------------|
G-8-7-6-7-6-3-6-6-6-6-6-8-7-6-7-6-3-1-1-1-1-1---------------|
C-8-7-6-7-6-3-6-6-6-6-6-8-7-6-7-6-3-1-1-1-1-1---------------|

Gtr. 1
D--------------------------------|VERSE X4------------------|
A--------------------------------|--------------------------|
F--------------------------------|PRE-CHORUS----------------|
C-8-7-6-7-6-2-3-3-3-3-3-4-4-4-4-4|--------------------------|
G-8-7-6-7-6-2-3-3-3-3-3-4-4-4-4-4|--------------------------|
C-8-7-6-7-6-2-3-3-3-3-3-4-4-4-4-4|--------------------------|

Gtr. 1 (and 2 maybe?) CHORUS
D---------------------------------------------|-------------|
A---------------------------------------------|-------------|
F---------------------------------------------|-------------|
C-1-------------------------------7-----8-----|-------------|
G-1-1-1-1-1-1-1-1-1-1-1-1-1-1-1-1-7-----8-----|-------------|
C-1-1-1-1-1-1-1-1-1-1-1-1-1-1-1-1-7-----8-----|-------------|
    sorta fast pick here          not sure if
                                morgan strums this part


Gtr. 1 (SOLO RYTHM)(play as neccessary until verse)
D---------------------------|-------------------------------|
A---------------------------|VERSE X4-----------------------|
F---------------------------|-------------------------------|
C---------------------------|PRE-CHORUS---------------------|
G---------------------------|-------------------------------|
C-2-2-2-2-2-2-2-2-2-2-2-2-2-|CHORUS X4----------------------|

Gtr. 1 SOLO
D-----------------------------------------------------------|
A-----------------------------------------------------------|
F-10-9-7-------------8-7-5------------5-4-2-----------------|
C--------10-9-7-5-7--------8-7-5-4-7--------5-4-2-1-3-------|
G-----------------------------------------------------------|
C-----------------------------------------------------------|
i tried to make this part as accurate as i could sorry if its not
but it sounds okay to me.


Gtr. 1 SOLO
D-------------------------|SOLO-----------------------------|
A-------------------------|---------------------------------|
F-------------------------|CHORUS X4------------------------|
C-2-2-2-2-2-2-3-3-3-3-3-3-|---------------------------------|
G-2-2-2-2-2-2-3-3-3-3-3-3-|---------------------------------|
C-2-2-2-2-2-2-3-3-3-3-3-3-|---------------------------------|

Gtr. 1 OUTRO
D-------------|---------------------------------------------|
A-------------|---------------------------------------------|
F-------------|---------------------------------------------|
C-------------|---------------------------------------------|
G-1----3----0-|---------------------------------------------|
C-1----3----0-|---------------------------------------------|


well thats it except for taras other parts i'll work on those later.
by the way the song sounds good with just one guitar (in fact it might be 1 guitar but
kinda sounds like 2 in the pre-verse and verse but maybe im wrong)i still play it on 1
 anyways check out my other tab (that i sent in unregistered accidentally) Everything 
Could Have Been By Kittie.
Добавлено: 31.05.2012
Другие материалы по этой песне:
  • Аккорды и текст

Страница создана 31.05.2012
http://primanota.ru/kittie/witch-hunt-chords.htm
Привет, Гость.
Предлагаем пройти революционный курс по гитаре.
Подарок от PrimaNota.Ru, забирай!