PrimaNota.ru - самый крупный в мире бесплатный архив песенных текстов, аккордов, табулатур и нот


Kittie - Will To Live - текст песни, таба, видео

Регистрация Запомнить меня
Войти через:  Facebook Google Twitter Vk Yandex Mail.ru

Kittie - Will To Live - текст песни, таба, видео

Печатать
Просмотров: 195
Уроки эстрадного вокала в Санкт-Петербурге
-------------------------------------------------------------------------------
                            Will To Live - Kittie
-------------------------------------------------------------------------------
Tabbed by:MetalVamptress
E-mail: MetalVamptress@yahoo.com

Couldn't find this tab anywhere. I only tabbed Morgan's guitar. Enjoy!

Tuning: Drop C

Intro
D|--------------------------------------------|
A|--------------------------------------------|
F|--------------------------------------------|
C|-3-3-3--5~--3-3-3--5~--3-3-3--1~--3~---3----|
G|-3-3-3--5~--3-3-3--5~--3-3-3--1~--3~---3----|
C|-3-3-3--5~--3-3-3--5~--3-3-3--1~--3~---3----|

Verse (Rep 2x)
D|---------------------------------------------------------------------------|
A|---------------------------------------------------------------------------|
F|---------------------------------------------------------------------------|
C|-5-5-----------8---7---5---7--5-5-----------8---7---5---7------------------|
G|-5-5-555-5-5-5-5-5-5-5-5-5-5--5-5-555-5-5-5-5-5-5-5-5-5-5-5----------------|
C|-5-5-555-5-5-5-5-5-5-5-5-5-5--5-5-555-5-5-5-5-5-5-5-5-5-5-5----------------|
       ... . . .   .   .   .        ... . . .   .   .   .   .

D|---------------------------------------------------------------------------|
A|---------------------------------------------------------------------------|
F|-----------------3---2---3-------------------------------------------------|
C|-1-1-------------1---1---1---1---3-3-----------3---5h6p5-3-5p3-------------|
G|-1-1-111-1-1-1-1-1-1-1-1-1-1-1---3-3-333-333-3-3---------------5-----------|
C|-1-1-111-1-1-1-1-1-1-1-1-1-1-1---3-3-333-333-3-3---------------------------|
       ... . . .     .   .   .         ... ... . 
Pre-Chorus
D|--------------------------------------------------------------------------|
A|--------------------------------------------------------------------------|
F|--------------------------------------------------------------------------|
C|--------------------------------------------------------------------------|
G|-1-1-1-1-1-1-1-1-1-1-1-1-1-1-1-1---3-3-3-3-3-3-3-3-3-3-3-3-3-3-3-3--------|
C|-1-1-1-1-1-1-1-1-1-1-1-1-1-1-1-1---3-3-3-3-3-3-3-3-3-3-3-3-3-3-3-3--------|

Chorus (Rep 2x)
D|------------------------------------------------------------------------------------------|
A|------------------------------------------------------------------------------------------|
F|------------------------------------------------------------------------------------------|
C|-5-5-5-5-5-5-5-5-5-5-5-5-3-3-3-5-5-5-5-5-5-5-5-5-5-5-3-3-3\1-1-1-1-1-1-1-1-1-1-1-1-1-1-1--|
G|-5-5-5-5-5-5-5-5-5-5-5-5-3-3-3-5-5-5-5-5-5-5-5-5-5-5-3-3-3\1-1-1-1-1-1-1-1-1-1-1-1-1-1-1--|
C|-5-5-5-5-5-5-5-5-5-5-5-5-3-3-3-5-5-5-5-5-5-5-5-5-5-5-3-3-3\1-1-1-1-1-1-1-1-1-1-1-1-1-1-1--|

D|----------------------------------|
A|----------------------------------|
F|----------------------------------|
C|-3-3-3-3-3-3-3-3-3-3-3-3-3-3-3----|
G|-3-3-3-3-3-3-3-3-3-3-3-3-3-3-3----|
C|-3-3-3-3-3-3-3-3-3-3-3-3-3-3-3----|

Pre-Verse
D|-------------------------------------|
A|-------------------------------------|
F|-------------------------------------|
C|-5-5-------------8---7---5---7-------|
G|-5-5-555-5-5-5-5-5-5-5-5-5-5-5-5-----|
C|-5-5-555-5-5-5-5-5-5-5-5-5-5-5-5-----|
       ... . . . .   .   .   .   .
Verse (Rep 2x)
D|---------------------------------------------------------------------------|
A|---------------------------------------------------------------------------|
F|---------------------------------------------------------------------------|
C|-5-5-----------8---7---5---7--5-5-----------8---7---5---7------------------|
G|-5-5-555-5-5-5-5-5-5-5-5-5-5--5-5-555-5-5-5-5-5-5-5-5-5-5-5----------------|
C|-5-5-555-5-5-5-5-5-5-5-5-5-5--5-5-555-5-5-5-5-5-5-5-5-5-5-5----------------|
       ... . . .   .   .   .        ... . . .   .   .   .   .

D|---------------------------------------------------------------------------|
A|---------------------------------------------------------------------------|
F|-----------------3---2---3-------------------------------------------------|
C|-1-1-------------1---1---1---1---3-3-----------3---5h6p5-3-5p3-------------|
G|-1-1-111-1-1-1-1-1-1-1-1-1-1-1---3-3-333-333-3-3---------------5-----------|
C|-1-1-111-1-1-1-1-1-1-1-1-1-1-1---3-3-333-333-3-3---------------------------|
       ... . . .     .   .   .         ... ... . 


Pre-Chorus
D|--------------------------------------------------------------------------|
A|--------------------------------------------------------------------------|
F|--------------------------------------------------------------------------|
C|--------------------------------------------------------------------------|
G|-1-1-1-1-1-1-1-1-1-1-1-1-1-1-1-1---3-3-3-3-3-3-3-3-3-3-3-3-3-3-3-3--------|
C|-1-1-1-1-1-1-1-1-1-1-1-1-1-1-1-1---3-3-3-3-3-3-3-3-3-3-3-3-3-3-3-3--------|


Chorus (Rep 2x)
D|------------------------------------------------------------------------------------------|
A|------------------------------------------------------------------------------------------|
F|------------------------------------------------------------------------------------------|
C|-5-5-5-5-5-5-5-5-5-5-5-5-3-3-3-5-5-5-5-5-5-5-5-5-5-5-3-3-3\1-1-1-1-1-1-1-1-1-1-1-1-1-1-1--|
G|-5-5-5-5-5-5-5-5-5-5-5-5-3-3-3-5-5-5-5-5-5-5-5-5-5-5-3-3-3\1-1-1-1-1-1-1-1-1-1-1-1-1-1-1--|
C|-5-5-5-5-5-5-5-5-5-5-5-5-3-3-3-5-5-5-5-5-5-5-5-5-5-5-3-3-3\1-1-1-1-1-1-1-1-1-1-1-1-1-1-1--|

D|----------------------------------|
A|----------------------------------|
F|----------------------------------|
C|-3-3-3-3-3-3-3-3-3-3-3-3-3-3-3----|
G|-3-3-3-3-3-3-3-3-3-3-3-3-3-3-3----|
C|-3-3-3-3-3-3-3-3-3-3-3-3-3-3-3----|


Hook(Pre-Chorus)
D|--------------------------------------------------------------------------|
A|--------------------------------------------------------------------------|
F|--------------------------------------------------------------------------| Rep
C|--------------------------------------------------------------------------| 2xs
G|-1-1-1-1-1-1-1-1-1-1-1-1-1-1-1-1---3-3-3-3-3-3-3-3-3-3-3-3-3-3-3-3--------|
C|-1-1-1-1-1-1-1-1-1-1-1-1-1-1-1-1---3-3-3-3-3-3-3-3-3-3-3-3-3-3-3-3--------|


D|---------------------------------------------------------------------------|
A|---------------------------------------------------------------------------|
F|---------------------------------------------------------------------------| Rep
C|---------------------------------------------------------------------------| 2xs
G|-1-111-111-111-111-111-111-111-11/3-333-333-333-333-333-333-333-333-33-----|
C|-1-111-111-111-111-111-111-111-11/3-333-333-333-333-333-333-333-333-33-----|
   . ... ... ... ... ... ... ... .. . ... ... ... ... ... ... ... ... ..

Chorus (Rep 2x)
D|------------------------------------------------------------------------------------------|
A|------------------------------------------------------------------------------------------|
F|------------------------------------------------------------------------------------------|
C|-5-5-5-5-5-5-5-5-5-5-5-5-3-3-3-5-5-5-5-5-5-5-5-5-5-5-3-3-3\1-1-1-1-1-1-1-1-1-1-1-1-1-1-1--|
G|-5-5-5-5-5-5-5-5-5-5-5-5-3-3-3-5-5-5-5-5-5-5-5-5-5-5-3-3-3\1-1-1-1-1-1-1-1-1-1-1-1-1-1-1--|
C|-5-5-5-5-5-5-5-5-5-5-5-5-3-3-3-5-5-5-5-5-5-5-5-5-5-5-3-3-3\1-1-1-1-1-1-1-1-1-1-1-1-1-1-1--|

D|----------------------------------|
A|----------------------------------|
F|----------------------------------|
C|-3-3-3-3-3-3-3-3-3-3-3-3-3-3-3----|
G|-3-3-3-3-3-3-3-3-3-3-3-3-3-3-3----|
C|-3-3-3-3-3-3-3-3-3-3-3-3-3-3-3----|


D|-----------|
A|-----------|
F|-----------| THE
C|-5\--------|   END 
G|-5\--------|
C|-5\--------|



************************************

| /   slide up
| \   slide down
| h   hammer-on
| p   pull-off
| ~   vibrato
| +   harmonic
| x   Mute note
| b   Bend
| pb  Pre-bend
| br  Bend release
| pbr Pre-bend release
| brb Bend release bend

************************************
Добавлено: 02.06.2016
Другие материалы по этой песне:
  • Аккорды и текст

Страница создана 29.03.2012
http://primanota.ru/kittie/will-to-live-chords.htm
Привет, Гость.
Предлагаем пройти революционный курс по гитаре.
Подарок от PrimaNota.Ru, забирай!