PrimaNota.ru - самый крупный в мире бесплатный архив песенных текстов, аккордов, табулатур и нот


Kittie - Suck - аккорды и текст, таба, бас-таба, видео

Регистрация Запомнить меня
Войти через:  Facebook Google Twitter Vk Yandex Mail.ru

Kittie - Suck - аккорды и текст, таба, бас-таба, видео

Печатать
Просмотров: 170
Авторы музыки: Kittie
Авторы текста: Kittie
Suck
Kittie
SONG: Suck
BAND: Kittie
ALBUM: Spit
TUNING: C, G, C, F, A, D

Intro/Chorus:
D---------------------------------
A---------------------------------
F---------------------------------
C-0-6-0-7-8-8-0-6-0-6-0-7-8-8-8-8-
G-0-6-0-7-8-8-0-6-0-6-0-7-8-8-8-8-
C-0-6-0-7-8-8-0-6-0-6-0-7-8-8-8-8-

Verse:
D------
A------
F-9/12-
C------
G-7/10-
C------
Use a wah on this part.

Pre-Chorus:
D---------------------
A---------------------
F---------------------
C---------------------
G-1-1-1-X-X-X-1-1-1-3-
C-1-1-1-X-X-X-1-1-1-3-

Outro:
D-----------------
A-----------------
F-----------------
C-------------8-7-
G-1-X-1-X-1-X-6-5-
C-1-X-1-X-1-X-----

Tabbed By: Munky's Slave
webmaster@kittienet.com
     
Добавлено: 27.10.2013
Другие материалы по этой песне:

Страница создана 14.03.2012
http://primanota.ru/kittie/suck-chords.htm
Привет, Гость.
Предлагаем пройти революционный курс по гитаре.
Подарок от PrimaNota.Ru, забирай!